Oops, an error
Loading. Please wait.

Big Machine Tab

version 5
version 5

Interactive

1,617 views 1 this week
no commentswrite comment
1 2 3 4 5
3 more votes to show rating
add to favorites
launch autoscroll
font size
0
reset
how to read this tab
guitar tuner
Autoscroll
slow
fast
+/-
esc
set tempo
stop
Help us to improve Ultimate-Guitar.com Take our survey!
×
Author
Big machine: The Goo Goo dolls
Tabbed and arranged by: N Sullivan
Tuning: D# A# D# G# A# D#

^ =hammer
/ =slide
X =mute

Intro:
|--0-0--0-0-0---0-0--0-0-0---0-----0-----0-0--0-0-0---0-0--0-0-0----|
|--0-0--0-0-0---0-0--0-0-0---0-----0-----0-0--0-0-0---0-0--0-0-0----|
|--5/7--6-6-6---5/7--6-6-6---0-----0----—5/7—-6-6-6—--5/7--6-6-6----|
|----------------------------x-----x--------------------------------|
|----------------------------5-----5--------------------------------|
|----------------------------5-----5--------------------------------|

--0----0----0----0--0--|
--0----0----0----0--0--|
--0----0----0----0--0--|
--x----x----x----x--0--|
--5----2----5----2--0--|
--5----2----5----2--0--|

Verse 1, 2:

|--0-0--0-0-0---0-0--0-0-0---0-----0-----0-0--0-0-0---0-0--0-0-0----|
|--0-0--0-0-0---0-0--0-0-0---0-----0-----0-0--0-0-0---0-0--0-0-0----|
|--5/7--6-6-6---5/7--6-6-6---0-----0----—5/7—-6-6-6—--5/7--6-6-6----|
|----------------------------x-----x--------------------------------|
|----------------------------5-----5--------------------------------|
|----------------------------5-----5--------------------------------|

--0----0----0----0--0--|
--0----0----0----0--0--|
--0----0----0----0--0--|
--x----x----x----x--0--|
--5----2----5----2--0--|
--5----2----5----2--0--|

Chorus 1, 2
|--0-------0-------0-------0-----0------0-------0-------0------|
|--0-------0-------0-------0-----0------0-------0-------0------|
|--0-------0-------0-------0-----0------0-------0-------0------|
|--x-------x-------x-------0-----x------x-------x-------0------|
|--7-------5-------2-------0-----7------5-------2-------0------|
|--7-------5-------2-------0-----7------5-------2-------0------| x2

Break down/Outro
|--0-------0-------0-------0-----0------0----|
|--0-------0-------0-------0-----0------0----|
|--0-------0-------0-------0-----0------0----|
|--x-------x-------x-------0-----x------x----|
|--5-------2-------0-------5-----2------0----|
|--5-------2-------0-------5-----2------0----|
Suggest correction
Give kudos to tab author, rate the tab!
1 2 3 4 5
comments
print report bad tab
guest
You may want to rate the tab now too:
select rating
Wanna post a correction for this tab? Suggest correction