Oops, an error
Loading. Please wait.

Big Machine Tab

version 6
version 6

Interactive

1,754 views 21 this week
no commentswrite comment
1 2 3 4 5
please rate
add to favorites
launch autoscroll
font size
0
reset
how to read this tab
guitar tuner
Autoscroll
slow
fast
+/-
esc
set tempo
stop
Help us to improve Ultimate-Guitar.com Take our survey!
×
Contributor
Difficulty
Tuning
novice
D# G# C# F# A# D#
this song is in 1/2 step down tuning.
Key:
h = hammer-on
p = pull-off
b = bend to indicated tone
r = return bend
> = sustain bend
/ = slide
| = measure marker
x = frethand mute/choke

Intro: riff 1
eb--------------------|
Bb--------------------|
Gb-8h9-9-9--9---8-8---|
Db-x-x-x-x--x---x-x---|x2
Ab-7-7-7-7--7-- 7-7---|
Eb--------------------|

eb-------------------|
Bb--4-4-4-4--4-4--2--|
Gb--4-4-4-4--4-4--2--|
Db--6-6-6-6--6-6--4--| 
Ab--6-6-6-6--6-6--4--|
Eb-------------------|

riff 2
eb--------------------|
Bb--------------------|
Gb-8h9-9-9--9---8-8---|
Db-x-x-x-x--x---x-x---|x2
Ab-7-7-7-7--7-- 7-7---|
Eb--------------------|

eb------------------|
Bb------------------|
Gb---4-4------------|
Db-4-2-2--6-4-4-2---|
Ab-4-2-2--6-4-4-2---|
Eb-2------4-2-2-0---|

riff 3
eb-----------------------|
Bb-----------------------|
Gb--11-11-11-11-11-8-8---|
Db---x--x--x--x--x-x-x---|x2
Ab---7--7--7--7--7-7-7---|
Eb-----------------------|

eb-------------------|
Bb--4-4-4-4--4-4--2--|
Gb--4-4-4-4--4-4--2--|
Db--6-6-6-6--6-6--4--| 
Ab--6-6-6-6--6-6--4--|
Eb-------------------|

eb-----------------------|
Bb-----------------------|
Gb--11-11-11-11-11-8-8---|
Db---x--x--x--x--x-x-x---|x2
Ab---7--7--7--7--7-7-7---|
Eb-----------------------|

eb------------------|
Bb------------------|
Gb---4-4------------|
Db-4-2-2--6-4-4-2---|
Ab-4-2-2--6-4-4-2---|
Eb-2------4-2-2-0---|

Chorus
eb-----------------|-----------------|-----------------|-----------------|
Bb-----------------|-----------------|-4-4-4-4-4-4-4-4-|-----------------|
Gb-4-4-4-4-4-4-4-4-|-----------------|-4-4-4-4-4-4-4-4-|-----------------|
Db-4-4-4-4-4-4-4-4-|-4-4-4-4-4-4-4-4-|-6-6-6-6-6-6-6-6-|-4-4-4-4-4-4-4-4-|x2
Ab-2-2-2-2-2-2-2-2-|-4-4-4-4-4-4-4-4-|-6-6-6-6-6-6-6-6-|-4-4-4-4-4-4-4-4-|
Eb-----------------|-2-2-2-2-2-2-2-2-|-----------------|-2-2-2-2-2-2-2-2-|
comments
We did not receive enough feedback on this tab! Please rate:
print report bad tab
1 2 3 4 5
I want to post or [tab]
guest
You may want to rate the tab now too:
select rating
Please do not post tabs as comments. Select "correction" instead!