Oops, an error
Loading. Please wait.

Black Balloon Tab

version 3
version 3

Whole song

Interactive

Video

227,063 views 228 this week
45 commentsread comments
1 2 3 4 5
excellent!
x 64
add to favorites
launch autoscroll
font size
0
reset
how to read this tab
guitar tuner
Autoscroll
slow
fast
+/-
esc
set tempo
stop
Help us to improve Ultimate-Guitar.com Take our survey!
×
Author
Difficulty
novice
[Intro]

Electric:
(Harmonic riff)
   * * * * * * * * * *
Db|--------------------------|
Db|--------------------------|
Ab|--------------------------| (Repeat until chorus)
Db|-------------4-5----------|
Ab|---5-4-5---5-----4---5----|
Db|-9-------9----------------|
|   *       *PM---|
Db|--------------------------|
Db|--------------------------|
Ab|--------------------------| (Repeat until chorus)
Db|-----0-------0-0---0------|
Ab|-------0---0-----0---0----|
Db|-9-------9----------------|
|             * * * * *
Db|--------------------------|
Db|--------------------------|
Ab|--------------------------| (Repeat until chorus)
Db|--------------------------|
Ab|-----------7-5-7-5---7----|
Bb|-0-------0----------------|

      OR
    * * * * * * * * *  * *
eb|--------------------------|
Bb|---------------7----------|
Gb|-----------------7--------| (Repeat until chorus)
Db|-------------7------7-----|
Ab|---7-4-5-7------------7---|
Eb|-7---------7--------------|

The rest of the electric guitar part is basically the same as the acoustic
part.  After "But on your Knees" play 22xxx/55xxx and palm mute
it and slowly open.  After "But on your knees" play 000000 and then play the
harmonic riff.  End with the harmonic riff and fade.
Acoustic:
(Play this over the Electric after it plays the harmonic riff twice)
Db|-0-0-0-0-0--0-0-0-0-0-|
Db|-0-0-0-0-0--0-0-0-0-0-|
Ab|-0-0-0-0-0--0-0-0-0-0-|
Db|-7-7-7-7-7--0-0-0-0-0-| 3x
Ab|-5-5-5-5-5--5-5-5-5-5-|
Db|------------5-5-5-5-5-|


[Verse]

Db|-0-0-0-0-0--0-0-0-0-0-|
Db|-0-0-0-0-0--0-0-0-0-0-|
Ab|-0-0-0-0-0--0-0-0-0-0-|
Db|-7-7-7-7-7--0-0-0-0-0-| 3x
Ab|-5-5-5-5-5--5-5-5-5-5-|
Db|------------5-5-5-5-5-|
    Baby's black balloon makes her fly
    I almost fell into that hole in your life
    And you're not thinking about tomorrow


[Pre-Chorus]

                             |-3-|  |-3-----------------------|
Db|-------0--------0---------0-0-0--0-0-0--0-0-0-0-0-0-0-0----|
Db|-----0--------0--------0--0-0-0--0-0-0--0-0-0-0-0-0-0-0----|
Ab|---0--------0--------0----0-0-0--0-0-0--0-0-0-0-0-0-0-0----|
Db|--------------------------0-0-0--0-0-0--0-0-0-0-0-0-0-0----|
Ab|-2--------4--------5------5-5-5--5-5-5--7-7-7-7\5-5-5-5----|
Db|--------------------------5-5-5--5-5-5--7-7-7-7\5-5-5-5----|
    Cause you were the same as me...But on your knees

Break: Repeat intro


[Verse]

(Play harmonic riff underneath)
Db|-0-0-0-0-0--0-0-0-0-0|
Db|-0-0-0-0-0--0-0-0-0-0|
Ab|-0-0-0-0-0--0-0-0-0-0|
Db|-7-7-7-7-7--0-0-0-0-0|
Ab|-5-5-5-5-5--5-5-5-5-5|
Db|------------5-5-5-5-5|
    A thousand other boys could never reach you
    How could I have been the one
    I saw the world spin beneath you


[Pre-Chorus]
                             |-3-|  |-3-----------------------|
Db|-------0--------0---------0-0-0--0-0-0--0-0-0-0-0-0-0-0----|
Db|-----0--------0--------0--0-0-0--0-0-0--0-0-0-0-0-0-0-0----|
Ab|---0--------0--------0----0-0-0--0-0-0--0-0-0-0-0-0-0-0----|
Db|--------------------------0-0-0--0-0-0--0-0-0-0-0-0-0-0----|
Ab|-2--------4--------5------5-5-5--5-5-5--7-7-7-7\5-5-5-5----|
Db|--------------------------5-5-5--5-5-5--7-7-7-7\5-5-5-5----|
    And scatter like ice from the sun...That was your womb


[Chorus]

Db|-0-0--0-0-0-0--0-0--0-0-0-0|
Db|-0-0--0-0-0-0--0-0--0-0-0-0|
Ab|-0-0--0-0-0-0--0-0--0-0-0-0|
Db|-0-0--0-0-0-0--0-0--0-0-0-0| 3x
Ab|-9-9--7-7-7-7--5-5--5-5-5-5|
Db|-9-9--7-7-7-7--5-5--0-0-0-0|
   Comin' down the world turned over
   And angels fall without you there
   And I go on as you get colder

Db|-0-0-0-0-0|
Db|-0-0-0-0-0|
Ab|-0-0-0-0-0|
Db|-0-0-0-0-0|
Ab|-5-5-7-7-7|
Db|-5-5-7-7-7|
    Or are you someone's prayer?


[Break]

(Play harmonic riff underneath)
    |-3-|         |-3--------|
Db|-0-0-0---------0-0-0------|
Db|-0-0-0---------0-0-0------|
Ab|-0-0-0---------0-0-0------|
Db|-7-7-7---------0-0-0------| 3x
Ab|-5-5-5---------5-5-5------|
Db|---------------5-5-5------|


[Verse]

(Play harmonic riff underneath)
    |-3-|         |-3--------|
Db|-0-0-0---------0-0-0------|
Db|-0-0-0---------0-0-0------|
Ab|-0-0-0---------0-0-0------|
Db|-7-7-7---------0-0-0------| 3x
Ab|-5-5-5---------5-5-5------|
Db|---------------5-5-5------|
    You know the lies they always told you?
    Or the love you never knew?
    What's the things they never showed you?


[Pre-Chorus]
                             |-3-|  |-3-----------------------|
Db|-------0--------0---------0-0-0--0-0-0--0-0-0-0-0-0-0-0----|
Db|-----0--------0--------0--0-0-0--0-0-0--0-0-0-0-0-0-0-0----|
Ab|---0--------0--------0----0-0-0--0-0-0--0-0-0-0-0-0-0-0----|
Db|--------------------------0-0-0--0-0-0--0-0-0-0-0-0-0-0----|
Ab|-2--------4--------5------5-5-5--5-5-5--7-7-7-7\5-5-5-5----|
Db|--------------------------5-5-5--5-5-5--7-7-7-7\5-5-5-5----|
    That swallowed the light from the sun...Inside your room


[Chorus]

Db|-0-0--0-0-0-0--0-0--0-0-0-0|
Db|-0-0--0-0-0-0--0-0--0-0-0-0|
Ab|-0-0--0-0-0-0--0-0--0-0-0-0|
Db|-0-0--0-0-0-0--0-0--0-0-0-0| 3x
Ab|-9-9--7-7-7-7--5-5--5-5-5-5|
Db|-9-9--7-7-7-7--5-5--0-0-0-0|
   Comin' down the world turned over
   And angels fall without you there
   And I go on as you get colder

Db|-0-0-0-0-0|
Db|-0-0-0-0-0|
Ab|-0-0-0-0-0|
Db|-0-0-0-0-0|
Ab|-5-5-7-7-7|
Db|-5-5-7-7-7|
Always someone's there


[Break]

(Figure out strumming yourself)
Db|-0--0--0--0--0--0--0--0--0|
Db|-0--0--0--0--0--0--0--0--0|
Ab|-0--0--0--0--0--0--0--0--0|
Db|-0--0--0--0--0--0--0--0--0|
Ab|-4--5--9--7--4--5--9--7--5|
Db|-4--5--9--7--4--5--9--7--5|

Db|-0--0--0--0--0|
Db|-0--0--0--0--0|
Ab|-0--0--0--0--0|
Db|-0--0--0--0--0| (Let ring)
Ab|-5--5--4--2//5|
Db|-5--5--4--2//5|

Db|-0--0--0|
Db|-0--0--0|
Ab|-0--0--0|
Db|-0--0--0|
Ab|-4--5--7|
Db|-4--5--7|
    And there's no time left for losin'...When you stand they fall yeah


[Chorus]

Db|-0-0--0-0-0-0--0-0--0-0-0-0|
Db|-0-0--0-0-0-0--0-0--0-0-0-0|
Ab|-0-0--0-0-0-0--0-0--0-0-0-0|
Db|-0-0--0-0-0-0--0-0--0-0-0-0| 3x
Ab|-9-9--7-7-7-7--5-5--5-5-5-5|
Db|-9-9--7-7-7-7--5-5--0-0-0-0|
   Comin' down the world turned over
   And angels fall without you there
   And I go on as you get colder

Db|-0-0--0-0-0-0|
Db|-0-0--0-0-0-0|
Ab|-0-0--0-0-0-0|
Db|-0-0--0-0-0-0|
Ab|-5-5--7-7-7-7|
Db|-5-5--7-7-7-7|
   All because I'm

Db|-0-0--0-0-0-0--0-0--0-0-0-0|
Db|-0-0--0-0-0-0--0-0--0-0-0-0|
Ab|-0-0--0-0-0-0--0-0--0-0-0-0|
Db|-0-0--0-0-0-0--0-0--0-0-0-0| 3x
Ab|-9-9--7-7-7-7--5-5--5-5-5-5|
Db|-9-9--7-7-7-7--5-5--0-0-0-0|
   Comin' down the years turned over
   And angels fall without you there
   And I'll go on and I'll bring you home and

Db|-0-0--0-0-0-0--0-0-0-0-0|
Db|-0-0--0-0-0-0--0-0-0-0-0|
Ab|-0-0--0-0-0-0--0-0-0-0-0|
Db|-0-0--0-0-0-0--0-0-0-0-0|
Ab|-5-5--7-7-7-7--4-4-4-4-4|
Db|-5-5--7-7-7-7--4-4-4-4-4|
   All because I'm...All because I'm

Db|-0--0--0|            Db|-0-|
Db|-0--0--0|            Db|-0-|
Ab|-0--0--0|            Ab|-0-|
Db|-0--0--0|  Or end on Db|-0-|
Ab|-2--5--5|            Ab|-0-|
Db|-2--5--0|            Db|-0-|
   And I'll become...What you became to me


[Outro]

Repeat harmonic riff and fade

        It also sounds good if you end with a little acoustic riff I've seen them
do on the
In Alaska DVD and heard on a live recording

Db|-------0-------0-------0---------------0-------0-----0---------0-|
Db|-----0---------------0---------------0-------------------------0-|
Ab|---0-----0---0---0-------0---0-----0-----0---0---0-----0---0---0-|
Db|-----------0-------0-------0---------------0-------0-----0---0-0-|
Ab|---------------------------------------------------------------5-|
Db|-0------------------------------5------------------------------0-|
                           Came to me...                  Came to me...



*********************************************************************************************

    *  =  Harmonic
 |-3-| =  Triplet
    /  =  Slide up
    \  =  Slide down
    x  =  Block string out
   PM  = Palm mute
000000 = Sideways tab (very left is the low E string and the very right is the high e)

*********************************************************************************************
Suggest correction new What's this?
You can suggest a correction to this tab. Community and Mods will review your correction and vote to approve or reject it.
comments
print report bad tab
45 comments total. Showing first comments.
0 reply
af2w131f 127 wrote on August 9 2004, 12:00 am

I feel like correcting your tab, only the intro tho, I watched many live videos of this song and this is totally correct for the harmonics. I'm not sure what the guitar is tuned to but this is it. Add a little delay and reverb for the right effect. I love harmonics and this is my fav harmonic riff along side of eve 6's think twice songs harmonic intro.

Db|-------------------------------------------|
Db|-------------------------------------------|
Ab|-------------------------------------------|
Db|------------------4--5---------------------|
Ab|--7---5-4-5---7----------4--5--------------|
Db|-------------------------------------------|

+2 reply
mikedeit 324 wrote on March 28 2005, 12:00 am

Great tab, i've been lookin for a good black ballon tab

+2 reply
Aaron120 17 wrote on July 17 2005, 12:00 am

Friggin amazing, man I would love it if you did the album lol. Thanks for the tab

guest
You may want to rate the tab now too:
select rating
Please do not post tabs as comments. Select "correction" instead!