Oops, an error
Loading. Please wait.

Black Balloon Chords

version 4
version 4

Whole song

Interactive

Video

13,060 views 12 this week
1 commentread comment
1 2 3 4 5
x 3
add to favorites
launch autoscroll
font size
0
reset
transpose
0
reset
simplify chords
display chords
guitar tuner
Autoscroll
slow
fast
+/-
esc
set tempo
stop
Help us to improve Ultimate-Guitar.com Take our survey!
×
Author
----------------------------------------------------------------------------
                             black Balloon - goo goo dolls
----------------------------------------------------------------------------
Tabbed by: Andy S.
Email: Lemur_24@hotmail.com

Tuning:EBDGBD

D/F (032002) D (032030) G (032003) A (032200)


This is the pre-chorus to the song but it sounds cool if you play it before the intro!

e|---------0---------0-----0----0-----|
B|-----------3--------------------0---|
G|------------------------------------|
D|------0---------0------0----0-------|
A|----0---------2------3----3---------|
E|------------------------------------|

Intro: D,G,D,G

D                              G 
Baby's black balloon makes her fly
D                        G
I almost fell into that hole in your life
D                                 G
And you're not thinking about tomorrow
  
    'Cause you were the same as me
e|---------0---------0-----0----0-----|
B|-----------3--------------------0---|
G|------------------------------------|
D|------0---------0------0----0-------|
A|----0---------2------3----3---------|
E|------------------------------------|

D            A  G
But on your knees

D                                  G
A thousand other boys could never reach you
D                   G 
but I have been the one
D                            G
I saw the world spin beneath you

     And scatter like ice from the spoon
e|---------0---------0-----0----0-----|
B|-----------3--------------------0---|
G|------------------------------------|
D|------0---------0------0----0-------|
A|----0---------2------3----3---------|
E|------------------------------------|

D             A  G
That was your womb

Chorus:

D       A         G          D/F
Comin' down the world turned over
    D        A       G       D/F
And angels fall without you there
   D     A      G      D/F
And I go on as you get colder
   G          A        D/F
Or are you someone's prayer

D                              G
You know the lies they always told you
   D                    G
And the love you never knew
D                         G      
was it things they never showed you

That swallowed the light from the sun
e|---------0---------0-----0----0-----|
B|-----------3--------------------0---|
G|------------------------------------|
D|------0---------0------0----0-------|
A|----0---------2------3----3---------|
E|------------------------------------|

D             A  G
and said your rong


D       A         G          D/F
Comin' down the world turned over
    D        A       G       D/F
And angels fall without you there
   D     A      G      D/F
And I go on as you get colder
   G          A        D/F
Or are you someone's prayer
            A                G
And there's no time left for losin'
          A         D/F
When you stand they fall

D       A         G          D/F
Comin' down the world turned over
    D        A       G       D/F
And angels fall without you there
   D     A      G      D/F
And I go on as you get colder
   G          A        D/F
Or are you someone's prayer

G        D/F
All because I'm
D      A          G         D/F
Comin' down the years turn over 
    D       A        G       D/F
And angels fall without you there
    D       A        G       D/F 
And I'll go on and lead you home and
G        D/F
All because I'm
G        D/F
All because I'm
D         A
And I'll become
G                  D/F
What you became to me

        Came to me  came to me 
e|---------0---------0-----0----0-----|
B|-----------3--------------------0---|
G|------------------------------------|
D|------0---------0------0----0-------|
A|----0---------2------3----3---------|
E|------------------------------------|



============================================================================
Suggest correction
Give kudos to tab author, rate the tab!
1 2 3 4 5
comments
print report bad tab
1 comment total.
+1 reply
Chris87 10 Aug 14, 2004 12:00 AM

this is a great tab but have you tried playing ti the same in half step with the same chords,it sounds right to me then??!!!

guest
You may want to rate the tab now too:
select rating
Wanna post a correction for this tab? Suggest correction