Oops, an error
Loading. Please wait.

Broadway tab

version 4
version 4

Whole song

Interactive

1,290 views 1 this week
2 commentsread comments
1 2 3 4 5
3 more votes to show rating
add to favorites
×
Save as Personal and add changes to this tab that will be seen only by you. Learn more ›
×
You can save this tab as Personal to edit and correct it or add notes. All changes will be seen only by you. Learn more »
launch autoscroll
font size
0
reset
how to read this tab
guitar tuner
edit
Autoscroll
slow
fast
+/-
esc
set tempo
stop
Author
Difficulty
Goo goo dolls Broadway
dizzy up the girl

First tab hope u like it! Have Fun!

Intro:C-Am(2x)then:

   C -      Am -       F  -      G
E------------------------------------------------------------------|
B----7/8~--------7-------------------------------------------------|
G—4/5------5-5h7---7p5---5-6/7-5-----------------------------------|
D----------------------7---------7-5~------------------------------|
A------------------------------------------------------------------|
E------------------------------------------------------------------|
Chorus:
Broadway is dark tonight, A little bit weaker than you used to be.

  Am    -   G  - F             Am -  G  - F  - C        Am -  G  - F
E----0------0-------0-----0--0----0----0-----0------0------0-----0---00-|
B-----0------0-------0--0---0------0----0--0---------0------0-----0--00-|
G--0------0-------0--------0----0----0------------0------0-----0----0-0-|
D-----------------------------------------------------------------------|
A-0---------------------------0----------------3--------0---------------|
E--------3------1--------------------3----1-------------------3----1----|

Broadway is dark tonight, See the young man sitting In the
old man’s bar, Waiting for his turn to die!

  Am   -G   -  F - C        Am-      G   -   C
E----0------0-----0--0---------0-------0------0--------|
B-----0------0-----0---0---------0-------0----0--------|
G--0------0-----0---0--------0--------0-------0--------|
D------------------------------------------------------|
A-0----------------3--------0----------------3---------|
E-------3------1---------------------3-----------------|

Chords Used:
Am:002210
Fmaj7:003210

Verse:
C5          A5
The cowboy kills the rock star
C5                A5
And Friday night’s gone too far
C5             A5
The dim light hides the years
   F5             G5
On all the faded girls
C5                 A5
Forgotten but not gone
C5                    A5
You drink it off your mind
C5                  A5
You talk about the world
          F5                    G5
Like it’s someplace that you’ve been

Bridge:
Am
You see you’d love to run home
But you know you ain’t got one
Fmaj7
And you’re livin’ in a world
                                  G5    F5
That you’re best forgotten around here
Chorus:
A5          G5        F5
Broadway is dark tonight
A5           G5               F5       C5
A little bit weaker than you used to be
A5          G5        F5
Broadway is dark tonight
        A5        G5
See the young man sitting
       F5         C5
In the old man’s bar
A5              G5        C5
Waiting for his turn to die
  C5       A5
e--------------------|
b----7/8~-5-6-5—5~---|
g—4/5----------7-----|
d--------------------|
a--------------------|
e--------------------|  x2

verse 2
C5               A5
You choke down all your anger
 C5           A5
Forget your only son
 C5           A5
You pray to statues
           F5            G5
When you're sober or for fun
C5               A5
Your anger don't impress me
C5               A5
The world slapped in your face
C5               A5
It always rains like hell
          F5           G5
On the losers day parade

              Am
You see you'd love to run home
But you know you ain't got one
Fmaj7
Cuz you're living in a world
That you're best forgotten

Am
When you're thinking of a joke
And nobody's gonna listen

To the one small point
I know they've been missing
F5      G5
Around here

Chorus:
A5          G5        F5
Broadway is dark tonight
A5           G5               F5       C5
A little bit weaker than you used to be
A5          G5        F5
Broadway is dark tonight
        A5        G5
See the young man sitting
       F5         C5
In the old man’s bar
A5                 G5          C5
Waiting for his turn to die


Solo(around 2:50):
   C5         -        A5       -
E--------------------------------|
B-----5--3--5--6--5--3--5--3-----|
G--5--------------------------5--|
D--------------------------------|
A--------------------------------|
E--------------------------------|
   C5         -        A5       -
E--------------------------------|
B--5--3--5--6--5--3--5--3--------|
G---------------------------5~---|
D--------------------------------|
A--------------------------------|
E--------------------------------|
   C5            - A5
E-----------------------------------|
B--6/5------------------------------|
G-------7---7--5--------------5-----|
D-----------------7--5--7-----------|
A-----------------------------------|
E-----------------------------------|


F5         -    G5

E----------------------------------|
B--6/5-------5--6---8~8------------|
G-------7-----------7~7------------|
D----------------------------------|
A----------------------------------|
E----------------------------------|

Bridge:
Am
You see you’d love to run home
But you know you ain’t got one

Fmaj7
And you’re livin’ in a world
That you’re best forgotten when your
Am
Thinking of a joke and nobodys going to listen to the

Fmaj7
One small point, and I know theyve been missing
F       G  F       G
round here! Round here!

   G5          C5
E------------------------------|
B------------------5-----------|
G--------------5-7-5-7-5-------|
D--------------5-7---7-5-7-7---|
A------3-3-5/7-----------7-7---|
E—-3-5---------------------5---|

Chorus:
A5          G5        F5
Broadway is dark tonight
A5           G5               F5       C5
A little bit weaker than you used to be
A5          G5        F5
Broadway is dark tonight
        A5        G5
See the young man sitting
       F5         C5
In the old man’s bar
A5                 G5          C5
Waiting for his turn to die

            
            
Suggest correction
Creating personal tab
Creating personal tab
You can edit any tab online and save it as your Personal.

You can edit, replace or remove any tab part or add personal notes – all changes will be seen only by you.

Personal tabs can be accessed anytime from any device, even offline.
Learn more »
Give kudos to tab author, rate the tab!
1 2 3 4 5
comments
print report bad tab
2 comments total.
0 reply
shmoper10 51 Dec 12, 2007 04:03 PM

please rate

0 reply
whatoftoday 10 Aug 25, 2010 11:10 AM

Please add that the tuning is: Eb Ab Db Gb B Eb with the emphasis on the fact that the B string is up 1/2 step from standard Eb tuning.

guest
You may want to rate the tab now too:
select rating
Wanna post a correction for this tab? Suggest correction