Oops, an error
Loading. Please wait.

Here Is Gone tab

version 10
version 10
61,159 views 12 this week
15 commentsread comments
1 2 3 4 5
x 21
add to favorites
×
Save as Personal and add changes to this tab that will be seen only by you. Learn more ›
×
You can save this tab as Personal to edit and correct it or add notes. All changes will be seen only by you. Learn more »
launch autoscroll
font size
0
reset
how to read this tab
guitar tuner
backing track
0:00
0:00
edit
Autoscroll
slow
fast
+/-
esc
set tempo
stop
Author
Difficulty
-----------------------------------------------------------------------------
                          HERE IS GONE - GOO GOO DOLLS

-----------------------------------------------------------------------------

Tabbed by: Woods14
Email:

Tuning:C#G#C#G#C#F

I tabbed this off of Sessions at AOL, with John playing the song solo. The strumming 
100 % correct, but im almost sure the rest is correct, enjoy.

Intro- repeat 2x

F |–0-0-0-0-0-0-0-0-0-0-0-0-0-0-0-0-0-0-0-0-0-0-0-0-0-0-0-0-0-0-0-0----|
C#|-0-0-0-0-0-0-0-0-0-0-0-0-0-0-0-0-0-0-0-0-0-0-0-0-0-0-0-0-0-0-0-0----|
G#|-5/7-7-7\5-5-5-5-5/7-7-7\5-5-5-5-0-0-0-0-0-0-0-0-0-0-0-0-0-0-0-0----|
C#|–7/9-9-9\7-7-7-7-7/9-9-9\7-7-7-7-x-x-x-x-x-x-x-x-0-0-0-0-0-0-0-5—---|
G#|-x-------------------------------7-7-7-7-7-7-7-7-5-5-5-5-5-5-5-5----|
C#|-0-------------------------------7-7-7-7-7-7-7-7-5-5-5-5-5-5-5-5----|

Verse- repeat 3x

F |–0-0-0-0-0-0-0-0-0-0-0-0-0-0-0-0-0-0-0-0-0-0-0-0-0-0-0-0-0-0-0-0----|
C#|-0-0-0-0-0-0-0-0-0-0-0-0-0-0-0-0-0-0-0-0-0-0-0-0-0-0-0-0-0-0-0-0----|
G#|-5/7-7-7\5-5-5-5-5/7-7-7\5-5-5-5-0-0-0-0-0-0-0-0-0-0-0-0-0-0-0-0----|
C#|–7/9-9-9\7-7-7-7-7/9-9-9\7-7-7-7-x-x-x-x-x-x-x-x-0-0-0-0-0-0-0-5—---|
G#|-x-------------------------------7-7-7-7-7-7-7-7-5-5-5-5-5-5-5-5----|
C#|-0-------------------------------7-7-7-7-7-7-7-7-5-5-5-5-5-5-5-5----|

Pre Chorus

F |-0-0-0-0-0-0-0-0-0-0-0-0-0-0-0-0-0--0--0--0--0--0--0--0--0--0-------|
C#|-0-0-0-0-0-0-0-0-0-0-0-0-0-0-0-0-0--0--0--0--0--0--0--0--0--0-------|
G#|-0-0-0-0-0-0-0-0-0-0-0-0-0-0-0-0-0--0—-0--0--0--0--0--0--0--0-------|
C#|-0-0-0-0-0-0-0-0-x-x-x-x-x-x-x-x-0--0--0--0--0—-0--0--0--0--0-------|
G#|-2-2-2-2-2-2-2-2-9-9-9-9-9-9-9-9-12-12-12-12–12-12-12-12-12-12------|
C#|-2-2-2-2-2-2-2-2-9-9-9-9-9-9-9-9-0--0--0--0--0--0--0--0--0--0-------|

F |-0-0-0-0-0-0-0-0-0-0-0-0-0-0-0-0-0-0-0-0-0-0-0-0-0-0-0-0-0----------|
C#|-0-0-0-0-0-0-0-0-0-0-0-0-0-0-0-0-0-0-0-0-0-0-0-0-0-0-0-0-0----------|
G#|-0-0-0-0-0-0-0-0-0-0-0-0-0-0-0-0-0-0-0-0-0-0-0-0-0-0-0-0-0----------|
C#|-0-0-0-0-0-0-0-0-x-x-x-x-x-x-x-x-x-x-x-x-x—x-x-0-0-0-0-0-0----------|
G#|-2-2-2-2-2-2-2-2-9-9-9-9-9-9-9-9-7-7-7-7–7-7-7-5-5-5-5-5-5----------|
C#|-2-2-2-2-2-2-2-2-9-9-9-9-9-9-9-9-7-7-7-7-7-7-7-5-5-5-5-5-5----------|

Chorus- repeat 2x


F |-0--0--0--0--0--0--0--0--0--0--0--0--0--0--0--0--0-0-0-0-0-0-0-0----|
C#|-0--0--0--0--0--0--0--0--0--0--0--0--0--0--0--0--0-0-0-0-0-0-0-0----|
G#|-x--x--x--x--x--x--x--x--x--x--x--x--x--x--x--x--0-0-0-0-0-0-0-0----|
C#|-12-12-12-12-12-12-12-12-12-12-12-12-12-12-12-12—x-x-x-x-x-x-x-x----|
G#|-12-12-12-12-12-12-12-12-12-12-12-12-12-12-12-12-9-9-9-9-9-9-9-9----|
C#|-0--0--0--0--0--0--0--0--11-11-11-11-11-11-11-11-9-9-9-9-9-9-9-9----|


F |-0-0-0-0-0-0-0------------------------------------------------------|
C#|-0-0-0-0-0-0-0------------------------------------------------------|
G#|-0-0-0-0-0-0-0------------------------------------------------------|
C#|-0-0-0-x-x-x-x------------------------------------------------------|
G#|-7-7-7-5-5-5-5------------------------------------------------------|
C#|-7-7-7-5-5-5-5------------------------------------------------------|

Verse- repeat 3x


F |–0-0-0-0-0-0-0-0-0-0-0-0-0-0-0-0-0-0-0-0-0-0-0-0-0-0-0-0-0-0-0-0----|
C#|-0-0-0-0-0-0-0-0-0-0-0-0-0-0-0-0-0-0-0-0-0-0-0-0-0-0-0-0-0-0-0-0----|
G#|-5/7-7-7\5-5-5-5-5/7-7-7\5-5-5-5-0-0-0-0-0-0-0-0-0-0-0-0-0-0-0-0----|
C#|–7/9-9-9\7-7-7-7-7/9-9-9\7-7-7-7-x-x-x-x-x-x-x-x-0-0-0-0-0-0-0-5—---|
G#|-x-------------------------------7-7-7-7-7-7-7-7-5-5-5-5-5-5-5-5----|
C#|-0-------------------------------7-7-7-7-7-7-7-7-5-5-5-5-5-5-5-5----|

Pre Chorus

F |-0-0-0-0-0-0-0-0-0-0-0-0-0-0-0-0-0--0--0--0--0--0--0--0--0--0-------|
C#|-0-0-0-0-0-0-0-0-0-0-0-0-0-0-0-0-0--0--0--0--0--0--0--0--0--0-------|
G#|-0-0-0-0-0-0-0-0-0-0-0-0-0-0-0-0-0--0—-0--0--0--0--0--0--0--0-------|
C#|-0-0-0-0-0-0-0-0-x-x-x-x-x-x-x-x-0--0--0--0--0—-0--0--0--0--0-------|
G#|-2-2-2-2-2-2-2-2-9-9-9-9-9-9-9-9-12-12-12-12–12-12-12-12-12-12------|
C#|-2-2-2-2-2-2-2-2-9-9-9-9-9-9-9-9-0--0--0--0--0--0--0--0--0--0-------|


F |-0-0-0-0-0-0-0-0-0-0-0-0-0-0-0-0-0-0-0-0-0-0-0-0-0-0-0-0-0----------|
C#|-0-0-0-0-0-0-0-0-0-0-0-0-0-0-0-0-0-0-0-0-0-0-0-0-0-0-0-0-0----------|
G#|-0-0-0-0-0-0-0-0-0-0-0-0-0-0-0-0-0-0-0-0-0-0-0-0-0-0-0-0-0----------|
C#|-0-0-0-0-0-0-0-0-x-x-x-x-x-x-x-x-x-x-x-x-x—x-x-0-0-0-0-0-0----------|
G#|-2-2-2-2-2-2-2-2-9-9-9-9-9-9-9-9-7-7-7-7–7-7-7-5-5-5-5-5-5----------|
C#|-2-2-2-2-2-2-2-2-9-9-9-9-9-9-9-9-7-7-7-7-7-7-7-5-5-5-5-5-5----------|

Chorus- repeat 2x

F |-0--0--0--0--0--0--0--0--0--0--0--0--0--0--0--0--0-0-0-0-0-0-0-0----|
C#|-0--0--0--0--0--0--0--0--0--0--0--0--0--0--0--0--0-0-0-0-0-0-0-0----|
G#|-x--x--x--x--x--x--x--x--x--x--x--x--x--x--x--x--0-0-0-0-0-0-0-0----|
C#|-12-12-12-12-12-12-12-12-12-12-12-12-12-12-12-12—x-x-x-x-x-x-x-x----|
G#|-12-12-12-12-12-12-12-12-12-12-12-12-12-12-12-12-9-9-9-9-9-9-9-9----|
C#|-0--0--0--0--0--0--0--0--11-11-11-11-11-11-11-11-9-9-9-9-9-9-9-9----|


F |-0-0-0-0-0-0-0------------------------------------------------------|
C#|-0-0-0-0-0-0-0------------------------------------------------------|
G#|-0-0-0-0-0-0-0------------------------------------------------------|
C#|-0-0-0-x-x-x-x------------------------------------------------------|
G#|-7-7-7-5-5-5-5------------------------------------------------------|
C#|-7-7-7-5-5-5-5------------------------------------------------------|

Bridge

F |-0--0--0--0--0--0--0-0-0-0-0-0--0--0--0--0--0--0--0--0--0--0--0--0--|
C#|-0--0--0--0--0--0--0-0-0-0-0-0--0--0--0--0--0--0--0--0--0--0--0--0--|
G#|-x--x--x--x--x--x--0-0-0-0-0-0--x--x--x--x--x--x--x--x--x--x—-x--x--|
C#|-11-11-11-11-11-11-0-0-0-0-0-0--12–12-12-12-12-12-12-12-12-12-12-12-|
G#|-9--9--9--9--9--9--5-5-5-5-5-5--12-12-12-12-12-12-12-12-12-12-12-12-|
C#|-0--0--0--0--0--0--5-5-5-5-5-5--0--0--0--0--0--0--11-11-11-11-11-11-|

F |-0--0--0--0--0--0--0-0-0-0-0-0--0-0-0-0-0-0-0-0-0-0-0-0-0-0-0-0-0-0-|
C#|-0--0--0--0--0--0--0-0-0-0-0-0--0-0-0-0-0-0-0-0-0-0-0-0-0-0-0-0-0-0-|
G#|-x--x--x--x--x--x--0-0-0-0-0-0--0-0-0-0-0-0-0-0-x-0—0–0-0-0-0-0-0-0-|
C#|-11-11-11-11-11-11-0-0-0-0-0-0--x–x-x-x-x-x-x-x-x-x-x-0-0-0-0-0-0-0-|
G#|-9--9--9--9--9--9--5-5-5-5-5-5--9-9-9-9-9-9-7-7-7-7-7-5-5-5-5-5-5-5-|
C#|-0--0--0--0--0--0--5-5-5-5-5-5--9-9-9-9-9-9-7-7-7-7-7-5-5-5-5-5-5-5-|

F |-0-0-0-0-0-0--------------------------------------------------------|
C#|-0-0-0-0-0-0--------------------------------------------------------|
G#|-0—0–0-0-0-0--------------------------------------------------------|
C#|-0-0-0-0-0-0--------------------------------------------------------|
G#|-5-5-5-5-5-5--------------------------------------------------------|
C#|-5-5-5-5-5-5--------------------------------------------------------|


Chorus / Ending- repeat 6x


F |-0--0--0--0--0--0--0--0--0--0--0--0--0--0--0--0--0-0-0-0-0-0-0-0----|
C#|-0--0--0--0--0--0--0--0--0--0--0--0--0--0--0--0--0-0-0-0-0-0-0-0----|
G#|-x--x--x--x--x--x--x--x--x--x--x--x--x--x--x--x--0-0-0-0-0-0-0-0----|
C#|-12-12-12-12-12-12-12-12-12-12-12-12-12-12-12-12—x-x-x-x-x-x-x-x----|
G#|-12-12-12-12-12-12-12-12-12-12-12-12-12-12-12-12-9-9-9-9-9-9-9-9----|
C#|-0--0--0--0--0--0--0--0--11-11-11-11-11-11-11-11-9-9-9-9-9-9-9-9----|


F |-0-0-0-0-0-0-0-0----------------------------------------------------|
C#|-0-0-0-0-0-0-0-0----------------------------------------------------|
G#|-0-0-0-0-0-0-0-5----------------------------------------------------|
C#|-0-0-0-x-x-x-x-7----------------------------------------------------|
G#|-7-7-7-5-5-5-5-0----------------------------------------------------|
C#|-7-7-7-5-5-5-5-0----------------------------------------------------|

=============================================================================
| /  slide up
| \  slide down
| h  hammer-on
| p  pull-off
| ~  vibrato
| +  harmonic
| x  Mute note

            
            
Suggest correction
Creating personal tab
Creating personal tab
You can edit any tab online and save it as your Personal.

You can edit, replace or remove any tab part or add personal notes – all changes will be seen only by you.

Personal tabs can be accessed anytime from any device, even offline.
Learn more »
comments
print report bad tab
15 comments total. Showing first comments.
0 reply
GWoods123 51 Nov 27, 2006 10:58 AM

Hey guys... I forgot to add at the beginning " the strumming ISNT 100 % correct, so please dont judge me for it, but im pretty sure the chords are correct. Last thing... you might need to add an interlude after the first chorus, the interlude is the same as the verses, repeat as needed.

0 reply
broadaz 10 Feb 03, 2007 06:38 AM

Excellent tab.. I watched the solo version at AOL sessions too, and this sounds just like it.. thanks!

0 reply
GWoods123 51 Feb 20, 2007 12:24 PM

no problem, if you tune down half a step it matches the song perfectly. thanks for the comment, iv been waiting for one

guest
You may want to rate the tab now too:
select rating
Wanna post a correction for this tab? Suggest correction