Oops, an error
Loading. Please wait.

Iris Tab

version 3
version 3
133,583 views 87 this week
8 commentsread comments
1 2 3 4 5
accurate
x 15
add to favorites
launch autoscroll
font size
0
reset
how to read this tab
guitar tuner
Tab Pro tools
  • play this tab
  • loop segment
  • change instrument
  • show fretboard
  • metronome
×
Best way to learn
"Iris"
Autoscroll
slow
fast
+/-
esc
set tempo
stop
Title: Iris (guitar & bass tabs)
Artist: Goo Goo Dolls
Album: Dizzy Up the Girl
Tabbed By: Renz Edward "AnGeLs_BrEaTh" Sui
Version: 1.0

Tuning:

Guitar 1(Rzeznik's Part)BDDDDD O_o?
Guitar 2(Mandolin) Complete Tab on Next Version In Fact I haven't seen a mandolin myself:P
Guitar 3(Distortion)Standard Tuning
Bass = Standard

Ok so for the tuning you tune the Low E down to B next is the A down to D,
D remains the same, G tuned down to D, B up to D 

(Careful on this string as it may snap off, if problem persist replace a high
E string) E down to D. Ya need a tuner or a 

keyboard instrument to tune this accurately. But for me I just do it by ear.
Dream on kiddo! heheh jk. ya can do it too, it 

just take practice! try octaving the Standard D with the other string and you
should have no problem.

This is my arrangement of the song so It's not guaranteed 100% accurate.
But I guarantee you that it will sound alike

Legend

h = Hammer on
/ = Slide
x = Mute
~ = vibrato
   
Guitar 1   
 
Intro:

d  |----0--0--0--0--0--0--0--0--0--0--0--0--|
d  |----0--0--0--0--0--0--0--0--0--0--0--0--|
D  |----0--0--0--0--0--0--0--0--0--0--0--0--|
D  |---12-12-12-12-12-12-11-11-11-11/12-12--|
D  |----x--x--x--x--x--x-12-12-12-12----12--|
B  |---12-12-12-12-12-12-10-10-10-10----10--|

Single Version

d  |----0--0--0--0--0--0--0--0--0--|
d  |----4--4--4--4--2--2--0--0--0--|
D  |----0--0--0--0--0--0--0--0--0--|
D  |----5--5--5--5--4--4--2--0--0--|
D  |-------------------------------|
B  |-------------------------------|

Acoustic Version (IMO Sounds Better)

d  |----0-0-0-0-0-0-0-0-0-0-----|
d  |----0-0-0-0-0-0-0-0-0-0-----|
D  |----5-5-5-5-4-4-4-5-4-0-----|
D  |----5-5-5-5-5-5-5-5-5-5-----|
D  |----------------------------|
B  |----------------------------|


Verse: 
(This part can be played by plucking or strummming, it also has many variation,
I'll try to put it up on the next update)

d  |--------0---------0---------0---------0----|
d  |----------0---------0---------0---------0--|
D  |------0-----0---0-----0---0-----0---0-----0|
D  |-------------------------------------------|
D  |-------------------------------------------|
B  |----3---------5---------8---------8--------|

d  |---------0----------0---------0---0-----0---0|
d  |-----------0----------0-------0---0-----0---0|
D  |-------0-----0----0-----0---0---0-----0---0--|
D  |---------------------------------------------|
D  |---------------------------------------------|
B  |----12---------10---------8---------8--------|

Chorus:


d  |-----------0-----0--------0-----0-----0---0-----0---0--|
d  |-----------0-----0--------0-----0-----0---0-----0---0--|
D  |-----0-----0-----0--0-----0-----0-0---0---0-0---0---0--|
D  |-----0-----0-----0--0-----0-----0-0---0---0-0---0---0--|
D  |-----x--x--x--x--x--x--x--x--x--x-x-x-x-x-x-x-x-x-x-x--|
B  |----12-12-12-12-12-10-10-10-10-10-8-8-8-8-8-8-8-8-8-8--|


Prelude

d  |-----------------------------------------------|
d  |--------0---0------0---0------0---0------0---0-|
D  |------0---0------0---0------0---0------0---0---|
D  |-----------------------------------------------|
D  |-----------------------------------------------|
B  |---12---------14---------15---------15---------|

d  |-----------------------------------------------|
d  |--------0---0------0---0-----0---0-----0---0---|
D  |------0---0------0---0-----0---0-----0---0-----|
D  |-----------------------------------------------|
D  |-----------------------------------------------|
B  |---12---------10---------8---------8-----------|

Interlude Fig A

d  |-----0--0--0--0---0--0--0--0---0---0-|
d  |-----0--0--0--0---0--0--0--0---0---0-|
D  |-----0--0--0--0---0--0--0--0---0---0-|
D  |----12-12-12-12--11-11-11-11--11--12-|
D  |-----x--x--x--x--11-11-11-11--11---0-|
B  |----12-12-12-12---x--x--x--x---x---x-|

Interlude Fig B

d  |-----5--5--5-5-5-4--4-4--5-4-0-------|
d  |-----5--5--5-5-5-5--5-5--5-5-5-------|
D  |-----0--0--0-0-0-0--0-0--0-0-0-------|
D  |-----0--0--0-0-0-0--0-0--0-0-0-------|
D  |-----5--5--5-5-5-5--5-5--5-5-5-------|
B  |-----x--x--x-x-x-x--x-x--x-x-x-------|

Solo Fig A

d  |-----0-0-0-7-0-0-9-0-0-7-0-0-7-------|
d  |-----0-0-0-0-0-0-0-0-0-0-0-0-0-------|
D  |-----0-0-0-0-0-0-0-0-0-0-0-0-0-------|
D  |-----0-0-0-0-0-0-0-0-0-0-0-0-0-------|
D  |-----x-x-x-x-x-x-x-x-x-x-x-x-x-------|
B  |-----8-8-8-8-8-8-8-8-8-8-8-8-8-------|

d  |-----0-0-0-7-0-0-9-0-0-7-0-0-7-------|
d  |-----0-0-0-0-0-0-0-0-0-0-0-0-0-------|
D  |-----0-0-0-0-0-0-0-0-0-0-0-0-0-------|
D  |-----0-0-0-0-0-0-0-0-0-0-0-0-0-------|
D  |-----x-x-x-x-x-x-x-x-x-x-x-x-x-------|
B  |-----7-7-7-7-7-7-7-7-7-7-7-7-7-------|


Solo Fig B

d  |-----0--0--0--0--0--0--0--0--0--0--0--0-|
d  |-----0--0--0--0--0--0--0--0--0--0--0--0-|
D  |-----0--0--0--0--0--0--0--0--0--0--0--0-|
D  |-----0--0--0--0--0--0--0--0--0--0--0--0-|
D  |-----x--x--x--x--x--x--x--x--x--x--x--x-|
B  |----12-12-12-14-14-14-15-15-15-15-15-15-|

d  |-----0-0-0-0-0-0-0-0-0-0-0-0-0-0-0-0----|
d  |-----0-0-0-0-0-0-0-0-0-0-0-0-0-0-0-0----|
D  |-----0-0-0-0-0-0-0-0-0-0-0-0-0-0-0-0----|
D  |-----0-0-0-0-0-0-0-0-0-0-0-0-0-0-0-0----|
D  |-----x-x-x-x-x-x-x-x-x-x-x-x-x-x-x-x----|
B  |-----0-0-0-2-2-2-3-3-3-5-5-5-7-7-3-3----|

Solo Fig C

d  |-----0--0--0--0--0--0--0--0--0--0--0--0-|
d  |-----0--0--0--0--0--0--0--0--0--0--0--0-|
D  |-----0--0--0--0--0--0--0--0--0--0--0--0-|
D  |-----0--0--0--0--0--0--0--0--0--0--0--0-|
D  |-----x--x--x--x--x--x--x--x--x--x--x--x-|
B  |----12-12-12-14-14-14-15-15-15-15-15-15-|

d  |-----0--0--0--0--0--0-0-0-0-0-0-0-0-0-0-|
d  |-----0--0--0--0--0--0-0-0-0-0-0-0-0-0-0-|
D  |-----0--0--0--0--0--0-0-0-0-0-0-0-0-0-0-|
D  |-----0--0--0--0--0--0-0-0-0-0-0-0-0-0-0-|
D  |-----x--x--x--x--x--x-x-x-x-x-x-x-x-x-x-|
B  |----12-12-12-10-10-10-8-8-8-7-7-7-5-5-3-|

Guitar 2

Solo

e  |----------------------------------------------------|
B  |-------------------------------7--------------------|
G  |-----2/7~-6~-2/7~-9-9/11~-2/7~---6-4/2-2/4-4/16~----|
D  |----------------------------------------------------|
A  |----------------------------------------------------|
E  |----------------------------------------------------|

e  |-----------------------------------------|
B  |--------------------7/14-14h15/14----14~-|
G  |-----2/7~-7/9-9/11~---------------14-----|
D  |-----------------------------------------|
A  |-----------------------------------------|
E  |-----------------------------------------|

Sequence

Single Version

Intro   		X 2
Verse   		X 4
Chorus  		X 4
Verse                   X 2
Intro			X 2
Chorus			X 4
Prelude 		X 2
Interlude Fig A + Fig B X 3
Interlude Fig A		X 1
Solo Fig A              X 3
Solo Fig B		X 1
Solo Fig A		X 1
Solo Fig C		X 1
Prelude			X 2
Chorus			X 4 Make the last chord longer
Chorus 			X 8 
Prelude	Till Fade 

Acoustic Version

Intro   		X 2
Verse   		X 4
Chorus  		X 4
Verse                   X 2
Intro			X 2
Chorus			X 4
Intro   		X 2 Second time first part only
Solo Fig B		X 1 Second Part Only
Solo Fig A		X 2 Second time first part only
Solo Fig B		X 1 
Solo Fig C		X 1
Prelude			X 1
Chorus			X 1
Prelude			X 1

Bass Tab

Note : The whole song uses Bass Picking

Intro

E |--------3-----------------------|
A |--2-----------------------------|
D |-----0--------------------------|
G |--------------------------------|

Verse

E |--------3--------3--------------|
A |-----------2--0-----------------|
D |--0--2--------------------------|
G |--------------------------------|

Pre Chorus

E |--------3--------3--3-3-3-3-3---|
A |-----------2--0-----------------|
D |--0--2--------------------------|
G |--------------------------------|

Chorus

E |---------------------3--3-3-3-3-|
A |--2--2-2-2--0--0-0-0------------|
D |--------------------------------|
G |--------------------------------|

Prelude

E |-----------------3--------------|
A |--2--4-----2--0-----------------|
D |--------0-----------------------|
G |--------------------------------|


Interlude Fig A

E |--------------------------------|
A |--2-2-2-2--2-2-2-2--2--2--------|
D |--------------------------------|
G |--------------------------------|

Interlude Fig B

E |--3--3-3--3-3--3-3--3-3-3-------|
A |--------------------------------|
D |--------------------------------|
G |--------------------------------|

Solo Fig A

E |--------------------------------|
A |--------------------------------|
D |--0-0-0-0-0-0-0-0-0-0-0-0-0-0-0-|
G |--------------------------------|

E |--------------------------------|
A |--4-4-4-4-4-4-4-4-4-4-4-4-4-4-4-|
D |--------------------------------|
G |--------------------------------|

E |--------------------------------|
A |--------------------------------|
D |--0-0-0-0-0-0-0-0-0-0-0-0-0-0-0-|
G |--------------------------------|

E |--------------------------------|
A |--2-2-2-2-2-2-2-2-2-2-2-2-2-2-2-|
D |--------------------------------|
G |--------------------------------|

Solo Fig B

E |--------------------------------|
A |--------------------------------|
D |--0-0-0-0-0-0-0-0-0-0-0-0-0-0-0-|
G |--------------------------------|

E |--------------------------------|
A |--4-4-4-4-4-4-4-4-4-4-4-4-4-4-4-|
D |--------------------------------|
G |--------------------------------|

E |--------------------------------|
A |--2-2-2-2-2-2-2-2-2-2-2-2-2-2-2-|
D |--------------------------------|
G |--------------------------------|

E |--------------------------------|
A |--2-2-2-2-2-2-2-2-2-2-2-2-2-2-2-|
D |--------------------------------|
G |--------------------------------|


Sequence

Bass Starts Playing Verse

Verse			X 3
Prechorus		X 1
Chorus			X 4
Intro			X 2
Verse			X 1
Prechorus		X 1
Chorus			X 4
Prelude			X 2
Interlude Fig A + Fig B X 3
Interlude Fig A		X 1
Solo Fig A		X 1
Solo Fig B		X 3
Prelude			X 2 Lower the volume
Chorus			X 4 Pick the last note longer
Chorus 			X 8
Prelude Till Fade


Email me for corrections @ Tidus501@hotmail.com
comments
print report bad tab
8 comments total. Showing first comments.
0 reply
distortionsucks wrote on October 31 2005, 06:04 pm

yo whats good angel breath this tab is mad word nigga

0 reply
JohnRzeznikFan wrote on June 16 2007, 09:07 pm

What? What the hell are you saying?

0 reply
laughcrylivedie wrote on July 24 2007, 10:54 pm

I think he says "What's up, this tab is excellent"
"angel breath" being the tabber's email

I want to post or [tab]
guest
You may want to rate the tab now too:
select rating
Please do not post tabs as comments. Select "correction" instead!