Oops, an error
Loading. Please wait.
We have an official Iris tab made by UG professional guitarists. Check out the tab »
×

Iris Acoustic tab

version 7
version 7

Whole song

Video

3,051 views 96 this week
no commentswrite comment
1 2 3 4 5
x 3
add to favorites
×
Save as Personal and add changes to this tab that will be seen only by you. Learn more ›
×
You can save this tab as Personal to edit and correct it or add notes. All changes will be seen only by you. Learn more »
launch autoscroll
font size
0
reset
how to read this tab
guitar tuner
backing track
0:00
0:00
edit
Autoscroll
slow
fast
+/-
esc
set tempo
stop
About this tab version
I put this together after looking through many different versions. I put together parts that I thought sounded good and left out the others. I worked on a finger picking version for the intro into the chorus. This may not be 100% correct but I like the way it sounds. It's very easy to sing to. Was this info helpful? Yes No
Iris - Goo Goo Dolls

This is my take on the tab.  I took different ideas from similar tabs to come up with 
my own compilation that, I believe, sounds great when played acoustically.  I made 
tabs for finger picking and the chords are right under it.

This song will sound fine with standard tuning just replace the G chord with a normal G (320033). 

G       B       D1      D2      D3
                     
0       0       0       0       0
0       3       3       3       3
0       4       2       0       2
5       0       0       0       2
5       2       0       0       0
5       0       0       2       0


d ---------------------------------------
B --3---3-------3---3-----0---0---0---0--
G --2-2---2-0---2-----2---0-0---0-0-0----
D --0------------------------------------
A ---------------------------------------
D --------------2---------5-------5------
    D1         D2         G

And I’d give up forever to touch you

d ---------------------------------------
B --3---3-------3---3-----0---0---0---0--
G --2-2---2-0---2-----2---0-0---0-0-0----
D --0------------------------------------
A ---------------------------------------
D --------------2---------5-------5------
    D          D2         G

‘Cause I know that you feel me somehow

d ---------------------------------------
B --3---3-------3---3-----3---3---0---0--
G --2-2---2-0---2-----2---2-2---2-0-0----
D --0---------------------0--------------
A ---------------------------------------
D --------------2---------0-------5------
    D          D2         D       G

You’re the closest to Heaven that I’ll ever be

d ---------------------------------------
B --3---3-------3---3-----0---0---0---0--
G --4-4---4-0---2-2---2---0-0---0-0-0----
D --------------2------------------------
A --2------------------------------------
D ------------------------5-------5------
    B           D3        G

And I don’t want to go home right now


d ---------------------------------------
B --3---3-------3---3-----0---0---0---0--
G --2-2---2-0---2-----2---0-0---0-0-0----
D --0------------------------------------
A ---------------------------------------
D --------------2---------5-------5------
    D1         D2         G

‘Cause all I can taste is this moment

d ---------------------------------------
B --3---3-------3---3-----0---0---0---0--
G --2-2---2-0---2-----2---0-0---0-0-0----
D --0------------------------------------
A ---------------------------------------
D --------------2---------5-------5------
    D          D2         G

And all I can breathe is your life

d ---------------------------------------
B --3---3-------3---3-----3---3---0---0--
G --2-2---2-0---2-----2---2-2---2-0-0----
D --0---------------------0--------------
A ---------------------------------------
D --------------2---------0-------5------
    D          D2         D       G

And sooner or later it’s over

d ---------------------------------------
B --3---3-------3---3-----0---0---0---0--
G --4-4---4-0---2-2---2---0-0---0-0-0----
D --------------2------------------------
A --2------------------------------------
D ------------------------5-------5------
    B           D3        G

I just don’t want to miss you tonight


D1      D2       G

And I don’t want the world to see me

D1       D2               G

‘Cause I don’t think that they’d understand

D1                D2    G

When everything’s meant to be broken

B      D3          G

I just want you to know who I am


***Then just repeat***

            
            
Suggest correction
Creating personal tab
Creating personal tab
You can edit any tab online and save it as your Personal.

You can edit, replace or remove any tab part or add personal notes – all changes will be seen only by you.

Personal tabs can be accessed anytime from any device, even offline.
Learn more »
Give kudos to tab author, rate the tab!
1 2 3 4 5
comments
print report bad tab
guest
You may want to rate the tab now too:
select rating
Wanna post a correction for this tab? Suggest correction