Oops, an error
Loading. Please wait.
We have Chord Pro version of Slide.
It's the closest thing you can get to the original song and it has interactive parts. Check out the tab »
×
22,688 views 21 this week
2 commentsread comments
1 2 3 4 5
x 11
add to favorites
×
Save as Personal and add changes to this tab that will be seen only by you. Learn more ›
×
You can save this tab as Personal to edit and correct it or add notes. All changes will be seen only by you. Learn more »
launch autoscroll
font size
0
reset
guitar tuner
edit
Autoscroll
slow
fast
+/-
esc
set tempo
stop
Intro:
G---------------------|
D---------------------|  2x
A--8--6--4------------|
E-----------4-3-------|

Verse 1:
G-----------------------------------------------------------------|
D-----------------------------------------------------------------|
A-8-8-8-8-8-8-8-8-6-6-6-6-6-6-6-6-4-4-4-4-4-4-4-4-4-4-4-4-4-4-4-4-|
E-----------------------------------------------------------------|

G----------------------------------------------------------------|
D----------------------------------------------------------------|
A-8-8-8-8-8-8-8-8-6-6-6-6-6-6-6-6-4-4-4-4-4-4-4-4-4-4-4-4-4-4-4--|
E----------------------------------------------------------------|

Pre-Chorus:
    I wanna wake up where you are...          I won't say anything at all
G------------------------------------------------------------------------|
D------------------------------------------------------------------------|
A-4---------------------------------4-6-8-6-4----------------------------|
E------------------------------------------------------------------------|

Chorus:
G-----------------------------------------------------------------------|
D-----------------------------------------------------------------------|
A---4-4---------4-4---------4-4---------6-6-6-6-6-6-6-6-6-6-6-6-6-6-6-6-|
E-------4-4-4-4-----4-4-4-4-----4-4-4-4---------------------------------|

G-----------------------------------------------------------------------|
D-----------------------------------------------------------------------|
A---4-4---------4-4---------4-4---------6-6-6-6-6-6-6-6-6-6-6-6-6-6-6-6-|
E-------4-4-4-4-----4-4-4-4-----4-4-4-4---------------------------------|

Verse 2:
G-------------------------------------------------------------------|
D-------------------------------------------------------------------|
A-------------------6-6-6-6-6-6-6-6-4-4-4-4-4-4-4-4-4-4-4-4-4-4-4-4-|
E---1-1-1-1-1-1-1-1-------------------------------------------------|

G------------------------------------------------------------------|
D------------------------------------------------------------------|
A-------------------6-6-6-6-6-6-6-6-4-4-4-4-4-4-4-4-4-4-4-4-4-4-4--|
E---1-1-1-1-1-1-1-1------------------------------------------------|

Pre-Chorus:
    I wanna wake up where you are...          I won't say anything at all
G------------------------------------------------------------------------|
D------------------------------------------------------------------------|
A-4---------------------------------4-6-8-6-4----------------------------|
E------------------------------------------------------------------------|

Chorus:
G-----------------------------------------------------------------------|
D-----------------------------------------------------------------------|
A---4-4---------4-4---------4-4---------6-6-6-6-6-6-6-6-6-6-6-6-6-6-6-6-|
E-------4-4-4-4-----4-4-4-4-----4-4-4-4---------------------------------|

      I'll do anything...
G-----------------------------------------------------------------------|
D-----------------------------------------------------------------------|
A---4-4---------4-4---------4-4---------6-6-6-6-6-6-6-6-6-6-6-6-6-6-6-6-|
E-------4-4-4-4-----4-4-4-4-----4-4-4-4---------------------------------|

      Oh May, put your arms around me...
G------------------------------------------------------------------|
D------------------------------------------------------------------|
A------------------6-6-6-6-6-6-6-6-4-4-4-4-3-3-3-3-4-4-4-4-6-6-6-6-|
E--1-1-1-1-1-1-1-1-------------------------------------------------|

G------------------------------------------------------------------|
D------------------------------------------------------------------|
A------------------6-6-6-6-6-6-6-6-4-4-4-4-4-4-4-4-4-4-4-4-4-4-4-4-|
E--1-1-1-1-1-1-1-1-------------------------------------------------|

G-----------------------------------------------------------------------|
D-----------------------------------------------------------------------|
A---4-4---------4-4---------4-4---------6-6-6-6-6-6-6-6-6-6-6-6-6-6-6-6-|
E-------4-4-4-4-----4-4-4-4-----4-4-4-4---------------------------------|

      I'll do anything...
G-----------------------------------------------------------------------|
D-----------------------------------------------------------------------|
A---4-4---------4-4---------4-4---------6-6-6-6-6-6-6-6-6-6-6-6-6-6-6-6-|
E-------4-4-4-4-----4-4-4-4-----4-4-4-4---------------------------------|

Oh May, put your arms around me...
G------------------------------------------------------------------|
D------------------------------------------------------------------|
A------------------6-6-6-6-6-6-6-6-4-4-4-4-3-3-3-3-4-4-4-4-6-6-6-6-|
E--1-1-1-1-1-1-1-1-------------------------------------------------|

G------------------------------------------------------------------|
D------------------------------------------------------------------|
A------------------6-6-6-6-6-6-6-6-4-4-4-4-4-4-4-4-4-4-4-4-4-4-4-4-|
E--1-1-1-1-1-1-1-1-------------------------------------------------|

Pre-Chorus:
    I wanna wake up where you are...          I won't say anything at all
G------------------------------------------------------------------------|
D------------------------------------------------------------------------|
A-4---------------------------------4-6-8-6-4----------------------------|
E------------------------------------------------------------------------|

      I'll do anything...
G-----------------------------------------------------------------------|
D-----------------------------------------------------------------------|
A---4-4---------4-4---------4-4---------6-6-6-6-6-6-6-6-6-6-6-6-6-6-6-6-|
E-------4-4-4-4-----4-4-4-4-----4-4-4-4---------------------------------|

      I'll do anything...
G-----------------------------------------------------------------------|
D-----------------------------------------------------------------------|
A---4-4---------4-4---------4-4---------6-6-6-6-6-6-6-6-6-6-6-6-6-6-6-6-|
E-------4-4-4-4-----4-4-4-4-----4-4-4-4---------------------------------|

      Oh oh slide, why don't you slide into my room....
G-----------------------------------------------------------------------|
D-----------------------------------------------------------------------|
A---4-4---------4-4---------4-4---------6-6-6-6-6-6-6-6-6-6-6-6-6-6-6-6-|
E-------4-4-4-4-----4-4-4-4-----4-4-4-4---------------------------------|


Outro:
G---------------------|
D---------------------|
A--8--6--4------------|
E-----------4-3-------|

G---------------------|
D---------------------|
A--8--6--4------------|
E-----------4---------|
Suggest correction
Creating personal tab
Creating personal tab
You can edit any tab online and save it as your Personal.

You can edit, replace or remove any tab part or add personal notes – all changes will be seen only by you.

Personal tabs can be accessed anytime from any device, even offline.
Learn more »
comments
print report bad tab
2 comments total.
0 reply
JDizzla 50 Sep 26, 2008 03:32 AM

better than that other version on UG
good job

0 reply
Ashaellia 10 Jan 02, 2016 11:34 PM, edited on January 3 2016, 04:35 am

Verse 2:G-------------------------------------------------------------------|D-------------------------------------------------------------------|A-------------------6-6-6-6-6-6-6-6-4-4-4-4-3-3-3-3-4-4-4-4-3-3-3-3-|E---1-1-1-1-1-1-1-1-------------------------------------------------|G------------------------------------------------------------------|D------------------------------------------------------------------|A-------------------6-6-6-6-6-6-6-6-4-4-4-4-4-4-4-4-4-4-4-4-4-4-4--|E---1-1-1-1-1-1-1-1------------------------------------------------|only thing I could find, this plays when the lyrics are, "What you feel is what you are, what you are is beautiful"

guest
Wanna post a correction for this tab? Suggest correction