Oops, an error
Loading. Please wait.
We have an official Slide tab made by UG professional guitarists. Check out the tab »
×
580,531 views 189 this week
45 commentsread comments
1 2 3 4 5
x 269
add to favorites
×
Save as Personal and add changes to this tab that will be seen only by you. Learn more ›
×
You can save this tab as Personal to edit and correct it or add notes. All changes will be seen only by you. Learn more »
launch autoscroll
font size
0
reset
how to read this tab
guitar tuner
edit
Autoscroll
slow
fast
+/-
esc
set tempo
stop
Best song ever.  Can't get much better than this.  This isn't actually the real way to
play it since the Goo Goo Dolls use all that alternate tuning, but it's close enough.
This is the standard tuning version.

Only 4 chords used:

Em7     022033
Dsus4   000233
Cadd9   032033
G       320033

Capo 1st fret:


[Intro]

e|-----------------------------------------|
B|------3-------3---------3-------3----3---|
G|----0---2---2---2-----0---0---0----------|
D|--2-------0-------0----------------------|
A|--------------------3--------------------|
E|----------------------------3-----2------|

e|-----------------------------------------|
B|------3-------3---------3-------3----3---|
G|----0---2---2---2-----0---0---0----------|
D|--2-------0-------0----------------------|
A|--------------------3--------------------|
E|----------------------------3-----2------|


Em7                     Dsus4
Could you whisper in my ear

                     Cadd9
The things you wanna feel


I'll give you anything to feel it coming.

Em7                    Dsus4
Do you wake up on your own,

                 Cadd9
Wonder where you are


Live with all your faults?


                          Cadd9
Riff:  E|-------------------3--
       B|----------3--------3--
       G|-------------------0--
       D|-------4-----5-----2--
       A|--3/5-----------5--3--
       E|-------------------0--

I wanna wake up where you are


                          Cadd9
Riff:  E|-------------------3--
       B|----------3--------3--
       G|-------------------0--
       D|-------4-----5-----2--
       A|--3/5-----------5--3--
       E|-------------------0--


I won't say anything at all,

Dsus4
So why don't you slide?


play these chords:    Cadd9, G, Cadd9, G, Cadd9, G, Dsus4


Em7                         Dsus4
Don't you love the life you killed?

                     Cadd9
The priest is on the phone


Your father hit the wall


Your Ma disowned you.

Em7                       Dsus4
I don't suppose I'll ever know

                      Cadd9
What it means to be a man


It's something I can't change


I'll live around it...

I wanna wake up where you are

                          Cadd9
Riff:  E|-------------------3--
       B|----------3--------3--
       G|-------------------0--
       D|-------4-----5-----2--
       A|--3/5-----------5--3--
       E|-------------------0--


I won't say anything at all

Dsus4
So why don't you slide?


Play these:  Cadd9, G, Cadd9, G, Cadd9, G, Dsus4

Cadd9          G              Cadd9            G
And I'll do anything you ever dreamed to be complete

       Cadd9         G            Dsus4
Little pieces of the nothing that fall

Em7                    Dsus4
Oh May, put your arms around me

         Cadd9             G               Cadd9        G
What you feel is what you are and what you are is beautiful

Em7                   Dsus4            Cadd9 (leading into the bridge)
Oh May, you wanna get married, or run away?


Bridge:  Cadd9, G, Cadd9, G, Cadd9, G, Dsus4


Cadd9          G              Cadd9            G
And I'll do anything you ever dreamed to be complete

       Cadd9         G            Dsus4
Little pieces of the nothing that fall

Em7                    Dsus4
Oh May, put your arms around me

         Cadd9            G                Cadd9        G
What you feel is what you are and what you are is beautiful

Em7                   Dsus4            Cadd9, G, Cadd9 (leads into riff)
Oh May, you wanna get married, or run away?

                                Dsus4
I wanna wake up where you are...

Cadd9          G              Cadd9          G
And I'll do anything you ever dream to be complete

       Cadd9         G            Dsus4
Little pieces of the nothing that fall...


              Cadd9              G                   Cadd9          G
Why don't you slide between them sheets of all those beds you never knew

     Cadd9          G          Em7            Dsus4
Just slide up to my room, just slide up to my room


And I will run away, run away run away...


[Outro]

e|-----------------------------------------|
B|------3-------3---------3-------3----3---|
G|----0---2---2---2-----0---0---0----------|
D|--2-------0-------0----------------------|
A|--------------------3--------------------|
E|----------------------------3-----2------|

                                G
e|------------------------------3--|
B|------3-------3---------3-----3--|
G|----0---2---2---2-----0---0---0--|
D|--2-------0-------0-----------0--|
A|--------------------3---------2--|
E|------------------------------3--|

            
            
Suggest correction
Creating personal tab
Creating personal tab
You can edit any tab online and save it as your Personal.

You can edit, replace or remove any tab part or add personal notes – all changes will be seen only by you.

Personal tabs can be accessed anytime from any device, even offline.
Learn more »
comments
print report bad tab
45 comments total. Showing first comments.
0 reply
Alley32191 371 May 13, 2005 08:00 PM

great tab

0 reply
matt_tml_ 70 May 13, 2005 08:00 PM

awsome tab man

+4 reply
Tangalicious 40 May 14, 2005 08:00 PM

This is pretty damn close, and easy to play. I can't believe no one tabbed this before. A lot better than breaking 2 B strings trying to tune to all the alternative tunings, good work.

guest
You may want to rate the tab now too:
select rating
Wanna post a correction for this tab? Suggest correction