Oops, an error
Loading. Please wait.

A New Beginning Tab

version 4
version 4

Whole song

Interactive

487 views 1 this week
no commentswrite comment
1 2 3 4 5
please rate
add to favorites
launch autoscroll
font size
0
reset
how to read this tab
guitar tuner
Autoscroll
slow
fast
+/-
esc
set tempo
stop
Help us to improve Ultimate-Guitar.com Take our survey!
×
Difficulty
novice
Band: Good Charlotte
Song: A New Beginning
Album: The Young And The Hopeless


Guitar 1
E|-----------000000000--222222222--555555555---------------------------|
B|-666666666-000000000--222222222--555555555---------------------------|
G|-666666666-111111111--333333333--666666666---------------------------|
D|-666666666-222222222--444444444--777777777---------------------------|
A|-444444444-222222222--444444444--777777777---------------------------|
E|-----------000000000--222222222--555555555---------------------------|

Guitar 1
E|-----------000000000--555555555-444444444----------------------------|
B|-666666666-000000000--555555555-444444444----------------------------|
G|-666666666-111111111--666666666-555555555----------------------------|
D|-666666666-222222222--777777777-666666666----------------------------|
A|-444444444-222222222--777777777-666666666----------------------------|
E|-----------000000000--555555555-444444444----------------------------|

Guitar 1
E|-----------000000000--222222222--555555555---------------------------|
B|-666666666-000000000--222222222--555555555---------------------------|
G|-666666666-111111111--333333333--666666666---------------------------|
D|-666666666-222222222--444444444--777777777---------------------------|
A|-444444444-222222222--444444444--777777777---------------------------|
E|-----------000000000--222222222--555555555---------------------------|
  ^ Guitar 2 comes in here

E|---------------------------------------------------------------------|
B|-141414141414141414-12121212121212121212-111111111111111111----------|
G|---------------------------------------------------------------------|
D|---------------------------------------------------------------------|
A|---------------------------------------------------------------------|
E|---------------------------------------------------------------------|

E|---------------------------------------------------------------------|
B|101010101010101010---------------------------------------------------|
G|---------------------------------------------------------------------|
D|---------------------------------------------------------------------|
A|---------------------------------------------------------------------|
E|---------------------------------------------------------------------|
Guitar 1
E|-----------555555555--222222222--444444444---------------------------|
B|-666666666-555555555--222222222--444444444---------------------------|
G|-666666666-666666666--333333333--555555555---------------------------|
D|-666666666-777777777--444444444--666666666---------------------------|
A|-444444444-777777777--444444444--666666666---------------------------|
E|-----------555555555--222222222--444444444---------------------------|

Guitar 2
E|---------------------------------------------------------------------
B|14141414141414141414141414141414141414141414141414141414141414141414-
G|---------------------------------------------------------------------|
D|---------------------------------------------------------------------|
A|---------------------------------------------------------------------|
E|---------------------------------------------------------------------|

E|---------------------------------------------------------------------|
B|-131313131313131313—-------------------------------------------------|
G|---------------------------------------------------------------------|
D|---------------------------------------------------------------------|
A|---------------------------------------------------------------------|
E|---------------------------------------------------------------------|

Guitar 1
E|-55555-2--55555-2--55555-2--55555-2--------------|
B|-55555-2--55555-2--55555-2--55555-2--------------|
G|-66666-3--66666-3--66666-3--66666-3--------------|
D|-77777-4--77777-4--77777-4--77777-4--------------|
A|-77777-4--77777-4--77777-4--77777-4--------------|
E|-55555-2--55555-2--55555-2--55555-2--------------|
  ****** *  ***** *

Guitar 1
E|-----------000000000--222222222--555555555---------------------------|
B|-666666666-000000000--222222222--555555555---------------------------|
G|-666666666-111111111--333333333--666666666---------------------------|
D|-666666666-222222222--444444444--777777777---------------------------|
A|-444444444-222222222--444444444--777777777---------------------------|
E|-----------000000000--222222222--555555555---------------------------|

E|---------------------------------------------------------------------|
B|1818181818181818181818-1717171717171717171717-1919191919191919191919-|
G|---------------------------------------------------------------------|
D|---------------------------------------------------------------------|
A|---------------------------------------------------------------------|
E|---------------------------------------------------------------------|

E|---------------------------------------------------------------------|
B|2222222222222222-1818181818181818-1717171717171717-1515151515151515--|
G|---------------------------------------------------------------------|
D|---------------------------------------------------------------------|
A|---------------------------------------------------------------------|
E|---------------------------------------------------------------------|

Guitar 1
E|-----------000000000--555555555-444444444----------------------------|
B|-666666666-000000000--555555555-444444444----------------------------|
G|-666666666-111111111--666666666-555555555----------------------------|
D|-666666666-222222222--777777777-666666666----------------------------|
A|-444444444-222222222--777777777-666666666----------------------------|
E|-----------000000000--555555555-444444444----------------------------|

Guitar 2
E|---------------------------------------------------------------------|
B|1818181818181818181818-1717171717171717171717-1919191919191919191919-|
G|---------------------------------------------------------------------|
D|---------------------------------------------------------------------|
A|---------------------------------------------------------------------|
E|---------------------------------------------------------------------|

* = palm mute
enjoi!
Suggest correction
Give kudos to tab author, rate the tab!
1 2 3 4 5
comments
print report bad tab
guest
You may want to rate the tab now too:
select rating
Wanna post a correction for this tab? Suggest correction