Oops, an error
Loading. Please wait.

Alive Bass Tab

1,155 views 3 this week
no commentswrite comment
1 2 3 4 5
please rate
add to favorites
launch autoscroll
font size
0
reset
guitar tuner
Tab Pro tools
  • play this tab
  • loop segment
  • change instrument
  • show fretboard
  • metronome
×
Best way to learn
"Alive"
Autoscroll
slow
fast
+/-
esc
set tempo
stop
Contributor
Difficulty
novice
Good Charlotte
Alive,from the new album Cardiology
GDAE
40/100 string

0:06

G--------------------------------------------------------------------------|
D--------------------------------------------------------------101010-8-5--|
A-0000000000000000-3333333333333333-0000000000000000-3333333333------------|
E--------------------------------------------------------------------------|

0:21

G--------------------------------------------------------------------------------------------|
D-10\6---3--3/1010101010101010101010101010-6666666666666666------------------8888888888888\--|
A------6----------------------------------------------------6666666666666666-----------------|
E--------------------------------------------------------------------------------------------|

0:48

G---------------------------------------------------------------------|
D---------------------------------------------------------------------|
A-0000000000000000-3333333333333333-0000000000000000-1111111111111111-|
E---------------------------------------------------------------------|

1:02

G------------------------------------------------|
D--10--6---3------10(x16)-6(x16)-----------------|
A--------6-----------------------6(x16)-11111111-|
E-------------0000-------------------------------|

1:28

G------------------------------------------------------------|
D----------------------101010-8-5----------------------------|
A--0(x16)-3(x16)-0(x16)-----------0(x16)-3(x16)-0(x16)-1(x16-|
E------------------------------------------------------------|

2:09

G-----------------------------|
D--3/10(x15)-6(x15------------|5(x8)
A------------------6(x16)-----|
E-----------------------------|

2:22.5

G-----------------------------------------------------|
D-----------------------------------------------------|
A--0(x16)-3(X16)-0(x16)-3(x16)0(x16)-3(x16)-0(x16)-56-|
E-----------------------------------------------------|

G----------------------------------------------------------|
D----------44--------------------------------------8(x16---|\
A--0(x16)----6--3(x16)-0(x16)-3(x16)-0(x16)-1(x16)---------|
E----------------------------------------------------------|

That's it i hope you like it,those fills are very far from perfect but i did the best i 
could so use it as a guide!!
comments
We did not receive enough feedback on this tab! Please rate:
print report bad tab
1 2 3 4 5
I want to post or [tab]
guest
You may want to rate the tab now too:
select rating
Please do not post tabs as comments. Select "correction" instead!