Oops, an error
Loading. Please wait.

All Black Bass Tab

version 1
version 1

Whole song

Interactive

2,156 views 1 this week
1 commentread comment
1 2 3 4 5
2 more votes to show rating
add to favorites
launch autoscroll
font size
0
reset
guitar tuner
Autoscroll
slow
fast
+/-
esc
set tempo
stop
Help us to improve Ultimate-Guitar.com Take our survey!
×
Difficulty
intermediate
intro
G:------------------------------------------------------------------:
D:------------------------------------------------------------------:
A:--77777777--22222222--33333333--55555555-5555---------------------: 2x
E:------------------------------------------------------------------:

verse 1
G:------------------------------------------------------------------:
D:-----------4-4--6-6--7-7--6-6--7-7--8-8--9-9--77------------------:2x
A:-----6-6----------------------------------------------------------:
E:------------------------------------------------------------------:

G:------------------------------------------------------------------:
D:------------9-9--7-7--9-9--8-8--9-9--10-10--12-12--10-10----------:
A:---10-10----------------------------------------------------------:
E:------------------------------------------------------------------:

G:------------------------------------------------------------------:
D:-------------8-8--10-10--11-11--12-12--10-10--7--5--3--0----------:
A:----10-10---------------------------------------------------------:
E:------------------------------------------------------------------:

chorus
G:------------------------------------------------------------------:
D:------------------------------------------------------------------:
A:--77777777--22222222--33333333--55555555-5555---------------------: 2x
E:------------------------------------------------------------------:

verse 2
G:------------------------------------------------------------------:
D:-----------4-4--6-6--7-7--6-6--7-7--8-8--9-9--77------------------:2x
A:-----6-6----------------------------------------------------------:
E:------------------------------------------------------------------:

G:------------------------------------------------------------------:
D:------------------------------------------------------------------:
A:-----7-7--5-5--3-3--0-0-------------------------------------------:
E:------------------------------------------------------------------:

chorus
G:------------------------------------------------------------------:
D:------------------------------------------------------------------:
A:--77777777--22222222--33333333--55555555-5555---------------------: 2x
E:------------------------------------------------------------------:

solo
G:------------------------------------------------------------------:
D:----10-----10--11--10--------------10--11--3/7--------------------:
A:-----------------------12--10-------------------------------------:
E:------------------------------------------------------------------:

------------------------------PAUSE----------------------------------
chorus
G:-------------------------------------------------------------------:
D:-------------------------------------------------------------------:
A:--77777777--22222222--33333333--55555555-5555----------------------: 2x
E:-------------------------------------------------------------------:

post chorus
G:-------------------------------------------------------------------:
D:-------------------------------------------------------------------:
A:--77777777---77777777---77777777-----------------------------------:
E:-------------------------------------------------------------------:

G:-------------------------------------------------------------------:
D:-------------------------------------------------------------------:
A:---22222222---22222222---22222222----------------------------------:
E:-------------------------------------------------------------------:

G:-------------------------------------------------------------------:
D:-------------------------------------------------------------------:
A:--33333333---33333333---33333333-----------------------------------:
E:-------------------------------------------------------------------:

G:-------------------------------------------------------------------:
D:-------------------------------------------------------------------:
A:---55555555---55555555---555555555---------------------------------:
E:-------------------------------------------------------------------:
outro
G:-------------------------------------------------------------------:
D:---10--11--10------------10--10--11--10----------------------------:
A:------------------12--10----------------------0-----0--------------:
E:-------------------------------------------------------------------:
Suggest correction
Give kudos to tab author, rate the tab!
1 2 3 4 5
comments
print report bad tab
1 comment total.
+2 reply
DaveMatthewsRox 10 Jan 01, 2009 05:45 PM

i played this along with the song and it sounded like i was in a totally different key signature. try again

guest
You may want to rate the tab now too:
select rating
Wanna post a correction for this tab? Suggest correction