Oops, an error
Loading. Please wait.

Anxiety Tab

1,825 views 1 this week
2 commentsread comments
1 2 3 4 5
excellent!
x 9
add to favorites
launch autoscroll
font size
0
reset
how to read this tab
guitar tuner
Autoscroll
slow
fast
+/-
esc
set tempo
stop
Help us to improve Ultimate-Guitar.com Take our survey!
×
Author
Difficulty
Tuning
novice
D# G# C# F# A# D#
Artist: Good Charlotte
Song: Anxiety
Album: Greatest Remixes
Tabbed by: Necriononguitar
E-Mail: Tim.Rathgen@gmx.de

REAL FANS SUPPORT BANDS BY PURCHASING THEIR CD'S!!!


Tuning: Half-step down

. = Palm-Muted
~ = hold note
^ = vibrate
p = pull off
h = hammer on
/ = slide up
\ = slide down


Intro-Chorus: 0:03
Guitar 1
E-------------------------------------------------------|
B-------------------------------------------------------|
G-------------------------------------------------------|
D---5---------9------------5----------7-----------------|
A---5--x16----9--x16-------5--x16-----7--x16------------|
E---3---------7------------3----------5-----------------|

Guitar 2
E---------------------------------------------------|
B------10-------------------------------------------|
G----------11-11---9-11-9---------9----9------------|
D---9------------------------12-----12--------------|    x3
A---------------------------------------------------|
E---------------------------------------------------|

E-----------------------------------------------------|
B-----------------------------------------------------|
G---11-9-11--11-9-11--11h12p11-11-9-7-----------------|
D-------------------------------------9~--------------|
A-----------------------------------------------------|
E-----------------------------------------------------|


Verse: 0:18
Guitar 1  
E----------------------------|
B----------------------------|
G----------------------------|
D--9999-7-9-9----------------|   x8
A----------------------------|
E----------------------------|
   .... . . .

0:31
Guitar 2
E-------------------------------------------|
B-------------------------------------------|
G------------------------11-11-11-11--------|
D---9--9--9--9----or-----9--9--9--9---------|   x3
A---9--9--9--9------------------------------|
E---7--7--7--7------------------------------|

0:40 (end of the Verse)
Guitar 2
E----------------------------------------------|
B----------------------------------------------|
G----------------------------------------------|
D----9--9--9---7-------------------------------|
A----9--9--9---7-x8----------------------------|
E----7--7--7---5-------------------------------|


Chorus: 0:43
same as before (play all twice)
Guitar 2
E---------------------------------------------------|
B------10-------------------------------------------|
G----------11-11---9-11-9---------9----9------------|
D---9------------------------12-----12--------------|    x3
A---------------------------------------------------|
E---------------------------------------------------|

E-----------------------------------------------|
B------10---------------------------------------|
G----------11-11--11-12-11-9--------------------|
D---9-------------------------12----------------|
A-----------------------------------------------|
E-----------------------------------------------|

E---------------------------------------------------|
B------10-------------------------------------------|
G----------11-11---9-11-9---------9----9------------|
D---9------------------------12-----12--------------|    x3
A---------------------------------------------------|
E---------------------------------------------------|

E-------------------------------------------------|
B-------------------------------------------------|
G---11-9-11--11-9-11--11h12p11-11-9-7-------------|
D-------------------------------------9~----------|
A-------------------------------------------------|
E-------------------------------------------------|

Verse: 1:10
Guitar 1
                          
E-------------------------------------------------------------------------|
B-----------------7-7-8-8-7-7------------------------10-10-8-8-7-7--------|
G------------------------------9\-----------------------------------9\----|
D--9999--7-9-9--------------------------9999--7-9-9-----------------------|x4
A-------------------------------------------------------------------------|
E-------------------------------------------------------------------------|
   ....  . . .            . .  .


1:23 Guitar 2
Plays same stuff as before
At the end Guitar 2 plays this:
E---------------------------------------------------|
B---------------------------------------------------|
G---------------/14---------------------------------|
D----9--9--9----/14-x5------------------------------|
A----9--9--9----/12---------------------------------|
E----7--7--7----------------------------------------|


Chorus: 1:36
Same as before (as long as the 2. Chorus)


Break: 2:02
Guitar 1
E-------------------------------------------------------|
B-------------------------------------------------------|
G-------------------------------------------------------|
D---7h9------7h9-9-9-----7h9-(9)-----7h9-9-9------------| x2
A-------------------------------------------------------|
E-------------------------------------------------------|


Guitar 2  2:14 (Starts when u played the stuff above once)
 
E-------------------------------------------------------|
B-----------7-----8-----7-------------7-----------------|
G------9----------------------9--------------9-----9----|
D--9-9---9-----9-----9-----9------9-------9-----9-------|
A-------------------------------------------------------|
E-------------------------------------------------------|
   . . . .  .  .  .  .  .  .  .   .   .   .  .  .  .

E--------------------------------------------------------|
B--------------------7-----------------------------------|
G--------7-----9------------9------7-------9-------7-----|
D---7-7-----7-----7-----7------7-------7-------7---------|
A--------------------------------------------------------|
E--------------------------------------------------------|
    . .  .  .  .  .  .  .   .  .   .   .   .   .   .

E-------------------------------------------------------|
B-----------7-----8-----7-------------7-----------------|
G------9----------------------9--------------9-----9----|
D--9-9---9-----9-----9-----9------9-------9-----9-------|
A-------------------------------------------------------|
E-------------------------------------------------------|
   . . . .  .  .  .  .  .  .  .   .   .   .  .  .  .

E-----------------------------------------------------------------|
B--------------------7-------10------10------10-------10----------|
G--------7-----9--------------------------------------------------|
D---7-7-----7-----7-----7---------7-------7-------7--------7------|
A-----------------------------------------------------------------|
E-----------------------------------------------------------------|
    . .  .  .  .  .  .  .


Chorus: 2:27
Both Guitar play the same as before

2:52
Again: repeat the Chorus

3:07
Guitar 2
E-------------------------------------12-x8---10-x8---14-x16------|
B--10-x8---12-x8---15-x8--14-x8-----------------------------------|
G-----------------------------------------------------------------|
D-----------------------------------------------------------------|
A-----------------------------------------------------------------|
E-----------------------------------------------------------------|


Thats it! I hope this helped, please rate, comment and correct me!

Cheers...
Suggest correction
What's this?
You can suggest a correction to this tab. Community and Mods will review your correction and vote to approve or reject it.
comments
print report bad tab
2 comments total.
0 reply
SharakonRHCP 29 wrote on December 2 2008, 02:05 pm

nice tab!!! 5*

0 reply
GoodCharlotte91 15 wrote on February 14 2009, 12:50 pm

very good tab
i hope theyre making a vid for this song
5*

guest
You may want to rate the tab now too:
select rating
Please do not post tabs as comments. Select "correction" instead!