Oops, an error
Loading. Please wait.

Beautiful Place Bass Tab

version 1
version 1

Whole song

Interactive

1,010 views 1 this week
2 commentsread comments
1 2 3 4 5
2 more votes to show rating
add to favorites
launch autoscroll
font size
0
reset
guitar tuner
×
Best way to learn
"Beautiful Place"
Autoscroll
slow
fast
+/-
esc
set tempo
stop
Author
Difficulty
This is one of my favorite songs ont he new cd, im pretty sure most of this tab is 
pretty much all of the notes i tabbed are in the key of E(correct me if im wrong, D# being 
only exception)so the tab should be correct.

I noticed not many of the songs from the new album were tabbed on bass so I thought Id 
a few(send requests to sonicspeed04@hotmail.com)

~ =hold note
h = hammer on


Intro x1

---------------------------------------------------------------------------|
-777-666-77---777-666-22---------------------------------------------------|
-------------------------444-222-44---444--222-44---777-555-77--555-444-55-|
---------------------------------------------------------------------------|

--------------------------------------|
--------------------------------------|
--------------------------------------|
-444-222-44---444-222-44---0~---------|

Verse(wait a second or 2 after singing starts, bass comes in at 0:19 )

--------------------------------------------------------------|
--------------------------------------------------------------|
--------------------------------------------------------------|
-444-222-44---444-222-44---777-555-77---555-444-55------------|

---------------------------------------------------------------|
---------------------------------------------------------------|
--------------------------777-666-77---777-666-22--------------|
-444-222-44---444-222-44---------------------------------------|

--------------------------------------------------------------|
--------------------------------------------------------------|
--------------------------------------------------------------|
-444-222-44---444-222-44---777-555-77---555-444-55------------|

--------------------------|
--------------------------|
--------------------------|
-444-222-44---444-222-44--|

Pre-Chorus 0:44

----------------------------------------------------|
----------------------------------------------------|
----------------------------------------------------|
-0000000000000000000-9999999999999999999999999999---|


Chorus x2

-----------------------------------------------------------------|
-----------------------------------------------------------------|
-----------------------------------------------------------------|
-7777-5555-44---444-222-44----99999999--44444444-55--------------|

---------------------------------------------------------------|
---------------------------------------------------------------|
---------------------------------------------------------------|
-7777-5555-44---444-222-44----999979999999979999---------------|


Then play:

Verse
Pre-Chorus
Chorus


Bridge x3 (12's then 11's in case u cant tell)

------------------------------------------|
------------------------------------------|
------------------------------------------|
-121212-111111-1212---141414-121212-1414--|

------------------------------------------|
------------------------------------------|
------------------------------------------|
-161616-141414-1616---161616-141414-1616--|


2:50 -- The third time you play the bridge end on this:

--------|
--------|
-16~----|
--------|

2:54
--------|
--------|
-4~-----|
--------|


  3:09           Chorus x2
   ^
--------l-----------------------------------------------------------------|
--------l-----------------------------------------------------------------|
--------l-----------------------------------------------------------------|
-44--22-l-----7777-5555-44---444-222-44----99999999--44444444-55----------|

         ----------------------------------------------------------------|
         ----------------------------------------------------------------|
         ----------------------------------------------------------------|
         -7777-5555-44---444-222-44----999979999999979999----------------|


Outro
---------|
---------|
---------|
-5h7-----|


send requests to sonicspeed04@hotmail.com, enjoy!
Suggest correction
Give kudos to tab author, rate the tab!
1 2 3 4 5
comments
print report bad tab
2 comments total.
0 reply
fenderbassdude 76 Aug 19, 2007 12:50 PM

it was basically right but the bridge didn't rly sound right idk it was all perfect cept the bridge good job.

0 reply
rastabass 308 Aug 20, 2007 03:52 PM

thanks, the bridge has the same grove as the verse, if that helps.

guest
You may want to rate the tab now too:
select rating
Wanna post a correction for this tab? Suggest correction