Oops, an error
Loading. Please wait.

Boys And Girls Chords

version 1
version 1

Whole song

Interactive

30,281 views 24 this week
no commentswrite comment
1 2 3 4 5
accurate
x 4
add to favorites
launch autoscroll
font size
0
reset
transpose
0
reset
- display chords -
guitar tuner
Tab Pro tools
  • play this tab
  • loop segment
  • change instrument
  • show fretboard
  • metronome
Autoscroll
slow
fast
+/-
esc
set tempo
stop
Contributor
Intro.

Riff 1

e|-----------------|
B|-----------3-----|
G|-----5-3-3---3---|   (repeat  x4)
D|-6-6-----------5-|
A|-----------------|
E|-----------------|

Verse 1.

Riff 2

e|----------------10-------|
B|-------13-11-11----11----|
G|-13-13----------------12-|
D|-------------------------|
A|-------------------------|
E|-------------------------|

(continue riff playing riff untill the chorus.listen to the song for timing)
(no chords)
Educated,
With  money,
He's well dressed,
Not funny.

Eb (p.m.)
And not much to say in,

Eb (p.m)
Most conversations,

Eb (p.m.)
But he'll foot the bill in,

Eb (p.m.)
All situations,

Eb (p.m.)             Bb
Coz he plays for everyhing.

Chorus.

Eb
Girls don't like boys,

Bb                     Ab
Girls like cars and money,

Eb
Boys will laugh at girls,

Bb                  Ab
When they're not funny.

Verse 2

(same as verse one except the Eb major chord does not start untill the 9th line)

Paper,
Or plastic,
Don't matter,
She'll have it.
Vacations,
And shopping sprees,
These are a few of her faverite things,
She'll get what she wants if,
She's willing to please,
His type of girls always comes with a fee,
Hey now,there's nothing for free.

Chorus.(ver 2)
(same as before but add to that the following bit)

Eb
And these girls like those boys,

Eb
Like these boys like those girls.

Ab
The girls with the bodies,

Ab
Like boys with fararis.

Eb
Girls don't like boys,

Bb                     Ab
Girls like cars and money.

(no chords for a while)

Bb Cm Ab
Cm Bb Ab   (repeat x2)

Bb Cm Ab Cm Bb Ab       BbCm Ab Bb
e|----   --------------- ----    ----  ----  -10-  -11-
B|-11-   ---------13-13- -11-    -11-  -13-  ----  ----
G|----   --------------- ----    ----  ----  ----  ----
B|----x12--------------- ----x8  ----x4----x4----x4---- x4
A|----   --------------- ----    ----  ----  ----  ----
E|----   --------------- ----    ----  ----  ----  ----

Chorus.(ver 2)
(Same as the second version of the chorus mentioned above)

Outro.
Riff 1x4

Riff 2x4 and repeats itself with the lytics untill it fades out.

All of these boys yeah get all of these girls
Losing their souls in a material world////
comments
print report bad tab
I want to post or [tab]
guest
You may want to rate the tab now too:
select rating
Please do not post tabs as comments. Select "correction" instead!