Oops, an error
Loading. Please wait.

Break Apart Her Heart Bass Tab

version 1
version 1

Whole song

Interactive

2,784 views 3 this week
no commentswrite comment
1 2 3 4 5
please rate
add to favorites
launch autoscroll
font size
0
reset
guitar tuner
Autoscroll
slow
fast
+/-
esc
set tempo
stop
Help us to improve Ultimate-Guitar.com Take our survey!
×
Author
Standard Tuning
5 string Bass

INTRO:

-------------------------------------------------|
-------------------------------------------------|  (x2)
--2--------------1-4-2---2/9-----------------4---|
-------------------------------------------------|
----------4---------------------4-------4-4------|

VERSE 1:

-------------------------------------1--------------------|
-----------------------------------4----------------------|
--13/6---6-x-6-6---6------4-x-4-4-------2--2-x-2-2---2/9--|
----------------------------------------------------------|
-------4---------4-----2----------------------------------|


---------------------------|
---------------------------|
-11-11-11-11-11-11-11-11---|
---------------------------|
---------------------------|

[
-------------------------------1--------------------------------------------|
-----------------------------4----------------------------------------------|
---6-x-6-6---6------4-x-4-4-------2--2-x-2-2---2/9--11-11-11-11-11-11-11-11-|
----------------------------------------------------------------------------|
-4---------4-----2----------------------------------------------------------|

                                        Repeat This One           ]


BRIDGE to Chorus(0:49):

-------------------------------------------------------------------------|
---------------------------------------------4---------------------------|
--------------8---------------6----------------4-4-4-4-4-4-4-4-----------|
-------6-6-6-----------4-4-4---------------------------------------------|
-4-x-4-----------2-x-2-----------0-x-0-0-0-0-----------------------------|

CHORUS: Same as Intro

VERSE 2: same as VERSE 1

INTERLUDE(2:01):

------------3-3---------------1---------------------1--3-3---------------|
-1-x-1---1----------------------3---------------------------4------------|
----------------4--1-x-1--1-1-----2-2---2-2-2-4-2-2----------------------|
-------------------------------------------------------------------------|
-------------------------------------------------------------------------|

--------3-3--------------------------------------------------------------|
-1-x-1------4------------------------------------------------------------|
---------------4-4-4-4-4-4-4-4---2-2-2-2-2-2-2-2---6-6-6-6-6-6-6-9-------|
-------------------------------------------------------------------------|
-------------------------------------------------------------------------|

-------------------------------------------------------------------------|
-------------------------------------------------------------------------|
-2-2-2-2-2-2-2-2--6-6-6-6-6-6-6-9---2-2-2-2-2-2-2-4-6-6-6-6-6-6-6-9------|
-------------------------------------------------------------------------|
-------------------------------------------------------------------------|

-------------------------------------------------------------------------|
-------------------------------------------------------------------------|
-2-2-2-2-2-2-2-2--4-4-4-4-4-4-4-4-4-4-4-4-4-4-4-4-4----------------------|
-------------------------------------------------------------------------|
-------------------------------------------------------------------------|

CHORUS

OUTRO:

------------------------------------------------------|
------------------------------------------------------|
-2-2-2-2-2-2-2-2--6-6-6-6-6-6-6-9--2-2-2-2-2-2-2-2----|
------------------------------------------------------|
------------------------------------------------------|

-----------------------------------------------------|
-----------------------------------------------------|
-4-4-4-4-4-4-4-4-4-4-4-4-4-4-4-4---------------------|
-----------------------------------------------------|
-----------------------------------------------------|
Suggest correction
What's this?
You can suggest a correction to this tab. Community and Mods will review your correction and vote to approve or reject it.
comments
We did not receive enough feedback on this tab! Please rate:
print report bad tab
1 2 3 4 5
guest
You may want to rate the tab now too:
select rating
Please do not post tabs as comments. Select "correction" instead!