Oops, an error
Loading. Please wait.

Break Apart Her Heart Bass Tab

version 2
version 2

Whole song

Interactive

1,283 views 3 this week
no commentswrite comment
1 2 3 4 5
accurate
x 1
add to favorites
launch autoscroll
font size
0
reset
guitar tuner
Tab Pro tools
  • play this tab
  • loop segment
  • change instrument
  • show fretboard
  • metronome
Autoscroll
slow
fast
+/-
esc
set tempo
stop
Hi! I think this is the correct way to play one of the greatest songs of GC!!!...Enjoy it!!!

INTRO

G|-----------------------------------------------------------------|
D|----------------------------------------------4------------------|
A|------------------5-5-5-5555---------------------5-5-5-5555------|
E|--4-4-4-4444-4444------------456-4-4-4-4444-4---------------456--|

G|------------------------------------------------------------------|
D|------------------------------------------------------------------|
A|------------------5-5-5-5555---------------------4-4-4-4444-4444--|
E|--4-4-4-4444-4444------------456-4-4-4-4444-4444------------------|

PRE-VERSE

G|---------|
D|---------|
A|---9/4---|
E|---------|

VERSE 1 (x3)

G|-------------------------------------------------------------|
D|-------------44------------46--------------------------------|
A|--6-6-6-x-66----4-4-4-x-44------------------9-9-9-9-9-9-9-9--|
E|------------------------------7-7-7-x-77-77------------------|

CHORUS

G|-----------------------------------------------------------------|
D|----------------------------------------------4------------------|
A|------------------5-5-5-5555---------------------5-5-5-5555------|
E|--4-4-4-4444-4444------------456-4-4-4-4444-4---------------456--|

G|------------------------------------------------------------------|
D|------------------------------------------------------------------|
A|------------------5-5-5-5555---------------------4-4-4-4444-4444--|
E|--4-4-4-4444-4444------------456-4-4-4-4444-4444------------------|

ESTROFA 2 (x2)

G|-------------------------------------------------------------|
D|-------------44------------44--------------------------------|
A|--6-6-6-x-66----4-4-4-x-44------------------9-9-9-9-9-9-9-9--|
E|------------------------------7-7-7-x-77-77------------------|






PRE-CHORUS

G|-----------------------------------|
D|-----------------------------------|
A|-----------------------------------|
E|--7-7-7-7-7-7-7-7-9-9-9-9-9-9-9-9--|

REPEAT CHORUS

BRIDGE

G|----------------------------------------------------|
D|----------------------------------------------------|
A|--------------99---------9-11--------------------9—-|
E|--11—11-11—11----9-9-9-9------7-7-7-7-77-7-7-7—-9---|

G|-------------------------------|
D|-------------------------------|
A|---6-6-6-666-------------------|
E|-------------9-9-9-9-9-9-9-9---|

SOLO

G|-----------------------------------------------------------|
D|-----------------------------------------------------------|
A|------------66666666----------66666666----------66666666---|
E|---77777777----------77777777----------77777777------------|

G|-----------------------|
D|---¬¬¬¬¬¬¬¬¬¬¬¬¬¬¬¬¬¬--------------------|
A|-----------------------|
E|---77777777-99999999---|

REPEAT CHORUS
REPEAT SOLO

ENDING NOTES

G|---------------------|
D|---------------------|
A|---------------------|
E|---9-9-9-9-9-9-9-9---|
comments
We did not receive enough feedback on this tab! Please rate:
print report bad tab
1 2 3 4 5
I want to post or [tab]
guest
You may want to rate the tab now too:
select rating
Please do not post tabs as comments. Select "correction" instead!