Oops, an error
Loading. Please wait.

Broken Hearts Parade Bass Tab

version 1
version 1

Whole song

Interactive

3,615 views 1 this week
6 commentsread comments
1 2 3 4 5
excellent!
x 6
add to favorites
launch autoscroll
font size
0
reset
guitar tuner
Autoscroll
slow
fast
+/-
esc
set tempo
stop
Help us to improve Ultimate-Guitar.com Take our survey!
×
Author
Difficulty
novice
  Song: Broken Hearts Parade
  Band: Good Charlotte
 Album: Good Morning Revival
Tabber: Aidypie (stargazer.77@hotmail.com)

hey. well this has got to be my favourite song off the whole album, altho the entire cd 
ASS. thanks for checking out this tab, and please rate, and dont be afraid to leave 
(good or bad)


Intro: wait for guitar to do its thing
G:------------------------------------:
D:------------------------------------:
A:--44444444--------77777777----------:  2x
E:----------55555555--------77777777--:


Verse:
G:---------------------------------------:
D:---------------------------------------:
A:--44-44-44----------77-77-77-----------:
E:-----------55-55-55----------77-77-77--:

G:------------------------------------:
D:------------------------------------:
A:--44-44-44----------77-77-77--------:
E:-----------55-55-55----------7/(0)--:


Chorus:
G:-------------------------------------:
D:-------------------------------------:
A:-------------------22222222----------: 3x
E:--55555555500000000--------55555555--:

G:----------------------------------:
D:----------------------------------:
A:-------------------22222222-------:
E:--55555555500000000--------5/(0)--:


Intro 1x

Verse 2
G:------------------------------------------:
D:------------------------------------------:
A:--44-44-44----------77-77-77--------------:
E:-----------55-55-55----------7-7-7-7-7-7--:

G:--------------------------------:
D:--------------------------------:
A:--44-44-44----------77-77-77----:
E:-----------55-55-55----------7--:


Chorus

Bridge

G:------------------------:
D:------------------------:
A:----44-0-22----44-0-----:
E:--0----------0------22--:

G:--------------------------------------------:
D:--------------------------------------------:
A:----44-0-22----44-000000000000000000000000--:
E:--0----------0------------------------------:

G:--------------:
D:--------------:
A:--0~~---4~~---:  Do this when the drums are doing the build up + drum roll
E:--------------:

G:------------------------------:
D:------------------------------:
A:--5555555544444444--------5xx-:
E:------------------22222222----:

G:------------------------------------:
D:------------------------------------:
A:--5555555544444444--------55555555--:
E:------------------22222222----------:

Final Chorus:
G:-------:
D:-------:
A:-------:
E:--15/--:

G:----------------------------------------- | \
D:-------------------------------------: -- |
A:-------------------22222222----------: -- |
E:--55555555500000000--------55555555--: -- |
                                           > 2x
G:-------------------------------------: -- |
D:-------------------------------------: -- |
A:-------------------22222222----------: -- |
E:--55555555500000000--------55555555------ | /

End Note:
G:-------:
D:-------:
A:--7~~--:
E:-------:


Key:
xx = mute
~~ = let ring
/  = slide down
(N)= dont play note, just slide down to it

thanks, leave comments, and rate!!
Suggest correction
comments
print report bad tab
6 comments total. Showing first comments.
0 reply
NadiaReed 155 wrote on April 7 2007, 04:51 pm

hey nothin wrong wid da tab!!!!!!! its great!!!!!!!
ive gotta agree wid ya dat "broken hearts parade" is da best song on da album! but da rest of da songs are awsume 2!!! its gotta be da best album they av brung out!!!!!!!!!!!!! thanks again!!!!

0 reply
Bass N Drums 20 10 wrote on June 21 2007, 09:22 pm

Great tab! Only thing I may see is that for the chorus and intro switch the sets of sevens around other than that awsome!

0 reply
Bass N Drums 20 10 wrote on June 21 2007, 09:26 pm

P.S I'm not sure about that also.

guest
You may want to rate the tab now too:
select rating
Please do not post tabs as comments. Select "correction" instead!