Oops, an error
Loading. Please wait.

Cardiology Tab

1,646 views 1 this week
no commentswrite comment
1 2 3 4 5
please rate
add to favorites
launch autoscroll
font size
0
reset
how to read this tab
guitar tuner
Tab Pro tools
  • play this tab
  • loop segment
  • change instrument
  • show fretboard
  • metronome
Autoscroll
slow
fast
+/-
esc
set tempo
stop
Contributor
Difficulty
novice



                         *** MattRevenger's Tabs ***
       I have covers of all this songs on my youtube channel check them out.
                         youtube.com/RevengerRecords

                        All rights goes to Good Charlotte
                               Capital Records®
                                     EMI®







Tabbed By: MattRevenger**DCMA_Familly**

Band:  Good Charlotte
Song:  Let The Music Play
Album: Cardiology
Year:  2010


e---------------|
h---------------|
G-----7--4------|
D-----x--4-5----|
A-----5--2-5----|
E----------3----|

Clean Guitar
e----------------|
h----------8-7---|
G----------------|
D------7---------|
A----5---5-------|
E----------------|

e----------------|
h----------------|
G----4-----------|
D----4--6--5-----|
A----2--7--5-----|
E-------4--3-----|

e----------------|
h----------------|
G----------------|
D----7---9---5---|
A----7---7---5---|
E----5---7---3---|

e----------------|
h----------------|
G-----7--4-------|
D-----x--4-5-----|
A-----5--2-5-----|
E----------3-----|

Clean Guitar
e----------------|
h----------8-7---|
G----------------|
D------7---------|
A----5---5-------|
E----------------|

1:43
e----------------|
h--------5-7-----|
G---7------------|
D-7---7----------|
A----------------|
E----------------|

e----------------|
h----------------|
G----------------|
D----7---9---5---|
A----7---7---5---|
E----5---7---3---|



e----------------|
h----------------|
G-----7--4-------|
D-----x--4-5-----|
A-----5--2-5-----|
E----------3-----|


e----------------|
h----------------|
G----------------|
D----7---9---5---|
A----7---7---5---|
E----5---7---3---|


e----------------|
h----------------|
G-----7--4-------|
D-----x--4-5-----|
A-----5--2-5-----|
E----------3-----|


e----------------|
h----------------|
G----------------|
D----7---9---5---|
A----7---7---5---|
E----5---7---3---|

     ........
e-------------------|
h-------------------|
G-------------------|
D----55555555--5----|
A----55555555--5----|
E----33333333--3----|






Tabbed By: MattRevenger**DCMA_Familly**

Band:  Good Charlotte
Song:  Counting the days
Album: Cardiology
Year:  2010

e----------------------------|
h----------------------------|
G----------------------------|
D----8--7--5-----------------|
A----6--5--3--6--------------|
E-------------4--------------|


e----------------11----------|
h----------------------------|
G----10-12-10-12----12-10-12-|
D----------------------------|
A----------------------------|
E----------------------------|

e--------------11-------------------------|
h-----------------------------------------|
G---10-12-10-12-----10-12-10--13-12-10----|
D--------------------------------------13-|
A-----------------------------------------|
E-----------------------------------------|


e--------------------------|
h--------------------------|
G---5----8---------5--7--8-|
D---5-6--8--8---8--5--7--8-|
A---3-6--6--8---8--3--5--6-|
E-----4-----6---6----------|

e-11------------------------11--------11-10--11-13-11----------------------|
h---11-9-8--9-8--898-----------11-13---------------------------------------|
G---------------------10---------------------------------------------------|
D--------------------------------------------------------------------------|
A--------------------------------------------------------------------------|
E--------------------------------------------------------------------------|

e---------------|
h---------------|
G---------------|
D----8--7--5----|
A----6--5--3--6-|
E-------------4-|



Tabbed By: MattRevenger**DCMA_Familly**

Band:  Good Charlotte
Song:  Silver Screen Romance
Album: Cardiology
Year:  2010



e------------------------|
h------------------------|
G--5-----5-----5-------5-|
D--x-----x-----x-------x-|
A--3-----3-----3-------3-|
E------------------------|

e------------------------|
h------------------------|
G------------------------|
D--5--3---6-5------------|
A--3--3---6-5------------|
E--3--1---4-3------------|

e--------------------------------------------------|
h----------1-------1-------1---------1----------3--|
G--------2-------2-------2---------0----------0----|
D-----3--------2-------3--------2-----------0------|
A---3--------0-------3--------3----------2---------|
E--------------------------------------3-----------|


e------------------------|
h------------------------|
G-----2-------------5----|
D--3--2--3--5-------x----|
A--3--0--3--5-------3----|
E--1-----1--3------------|


e------------------------|
h------------------------|
G------------------------|
D--5--3---6-5------------|
A--3--3---6-5------------|
E--3--1---4-3------------|


e----------------------------------------------------|
h----------1-------1-------1---------1----------3----|
G--------2-------2-------2---------0----------0------|
D-----3--------2-------3--------2-----------0--------|
A---3--------0-------3--------3----------2-----------|
E--------------------------------------3-------------|

e------------------------|
h------------------------|
G-----2-------------5----|
D--3--2--3--5-------x----|
A--3--0--3--5-------3----|
E--1-----1--3------------|


e------------------------|
h------------------------|
G------------------------|
D--5--3---6-5------------|
A--3--3---6-5------------|
E--3--1---4-3------------|

e------------------------|
h------------------------|
G--5-----5-----5-------5-|
D--x-----x-----x-------x-|
A--3-----3-----3-------3-|
E------------------------|


e------------------------|
h------------------------|
G------------------------|
D--5--3---6-5------------|
A--3--3---6-5------------|
E--3--1---4-3------------|

e------------------------|
h------------------------|
G------------------------|
D--6--5------5-5---------|
A--6--5------3-3---------|
E--4--3------3-3---------|


Tabbed By: MattRevenger**DCMA_Familly**

Band:  Good Charlotte
Song:  Like it's her birthday
Album: Cardiology
Year:  2010


This chords are used for intro listen for strumming and changing
e----------------------------------|
h---9---12---7---------------------|
g---8---11---6---------------------|
D---6----9---4---------------------|
A----------------------------------|
E----------------------------------|


e---------------|
h---------------|
g--9------------|
D--9--9---4--2--|
A--7--9---4--2--|
E-----7---2--0--|


............
e-----------|
h-----------|
g------4----|
D-4-6--4-2--|
A-4-6--2-2--|
E-2-4----0--|



Tabbed By: MattRevenger**DCMA_Familly**

Band:  Good Charlotte
Song:  Last Night
Album: Cardiology
Year:  2010


e------------------------------|
h-------------8888-------------|
G--12v-1210---9910---6--999--7-|
D------------------------------|
A------------------------------|
E------------------------------|

e--------------------------|
h--------------------------|
G----3------5------3-----6-|
D----3--3---5------3--3--6-|
A----1--3---3------1--3--4-|
E-------1-------------1----|

e---------------------|
h---------------------|
G------------5--------|
D-----7---5--3--3---5-|
A-----5---3-----1---3-|
E---------------------|

e--------------|
h--------------|
G--7--6-5-4----|
D--7--6-5-4----|
A--5--4-3-2----|
E--------------|

Clean
e--------------|
h--------------|
G--3--4--5---6-|
D--3--4--5---6-|
A--1--2--3---4-|
E--------------|


e--------------|
h--------------|
G-6-7-9-10---7-|
D--------------|
A--------------|
E--------------|


Tabbed By: MattRevenger**DCMA_Familly**

Band:  Good Charlotte
Song:  Sex on the radio
Album: Cardiology
Year:  2010

e----------------------|
h----------------------|
G-----9-----7----------|
D--7--9--4--7------776-|
A--7--7--2--5------554-|
E--5-------------------|

e--------------------|
h--5-----------------|
G--x-4---7--776------|
D--2-x---x-----------|
A----2---5--554------|
E--------------------|

e------------------------|
h------------------------|
G-----9------------------|
D--7--9--4--7------------|
A--7--7--2--5------------|
E--5---------------------|


e----------------------|
h----------------------|
G-----9-----7----------|
D--7--9--4--7------776-|
A--7--7--2--5------554-|
E--5-------------------|

e--------------------|
h--------------------|
G----11--9--7--6-----|
D----11--9--7--7-----|
A----9---7--5--5-----|
E--------------------|


e--------------------|
h--------------------|
G----14-13---11-10---|
D--------------------|
A--------------------|
E--------------------|


e--------------------|
h--10-9-10-----------|
G-----------7-6------|
D---------------7----|
A--------------------|
E--------------------|




Tabbed By: MattRevenger**DCMA_Familly**

Band:  Good Charlotte
Song:  Alive
Album: Cardiology
Year:  2010


e---------------------------|
h---------------------------|
G---9--11---9---11---14-13--|
D---x--x----x---x----x--x---|
A---7--9----7---9----12-11--|
E---------------------------|


e------------|
h------------|
G---9xx9---9-|
D---9xx9---9-|
A---7xx7---7-|
E------------|

e--------------|
h--------------|
G--------------|
D---7--4--7--2-|
A---5--4--7--2-|
E---5--2--5--0-|


e---------------|
h---------------|
G---11--7-----9-|
D---11--7--7--9-|
A---9---5--7--7-|
E----------5----|

e---------------|
h---------------|
G---------------|
D---7--4--------|
A---5--4--------|
E---5--2--------|


e----------------|
h----------------|
G---11--7-----6--|
D---11--7--7--6--|
A---9---5--7--4--|
E----------5-----|


e---------------------|
h---------------------|
G--------------14-16--|
D--7--4---2-----------|
A--5--4---2----12-14--|
E--5--2---0-----------|


Tabbed By: MattRevenger**DCMA_Familly**

Band:  Good Charlotte
Song:  Standing Ovation
Album: Cardiology
Year:  2010

e-----------------------------------------|
h-----------------------------------------|
G---------------------------------6-------|
D------8-6------------------6---8--8-6----|
A--/5-------9--6--9-6--6-99---9---------9-|
E--------------------9--------------------|

e----------------------------------|
h----------------------------------|
G----------------------------------|
D------8---6---------------6----6v-|
A------------9-6-96---6-99----9----|
E-------------------9--------------|

e------------------------------------------------------6----|
h---7--7--7----------7--9-7----7----9-7---7--9-7---7-----7--|
G---6--6--6--------6--6------6---6-------6-6-----6---6------|
D---4--4--6-------------------------------------------------|
A---------4-------------------------------------------------|
E------6----------------------------------------------------|

e-9------------9------|
h---7-9----------7-9--|
G---------------------|
D---------------------|
A---------------------|
E---------------------|


Clean
e---------------|
h---------------|
G-----6-11--9---|
D---6-6-11--9---|
A---6-4-9---7---|
E---4-----------|


e--------------|
h--------------|
G---6-----6--6-|
D---4--6--4--6-|
A------4-----4-|
E--------------|

e----------------------------9-------------9----------------------------------|
h---------------------------11--11v11v-9--11v--9119---------------------------|
G----------------------11--------------------------11---8-11------------------|
D-----------11--11-13--------------------------------11-----------------------|
A--9--11-13-------------------------------------------------------------------|
E-----------------------------------------------------------------------------|

e-----------------------------------------------------------------------|
h-7-7-7--7--------------------------------------------------------------|
G-6-6-6--6--------------------------------------------------------------|
D-4-4-6--4--------------------------------------------------------------|
A-----4-----------------------------------------------------------------|
E-----------------------------------------------------------------------|



E||--------------------|
B||--------------------|
G||-------6---4---6----|
D||---4---6---4---6----|
A||---4---4---2---4----|
E||---2----------------|


e----------------------------------------------------------------------------|
h----------------------------------------------------------------------------|
G----------------------------------------------------------------------------|
D---8-6----------------6----6v-----------------------------------------------|
A-------9-6-9-6---6-99---9---------------------------------------------------|
E---------------9------------------------------------------------------------|

Outro
e---------------------------------------------------------------------------|
h---------------------------------------------------------------------------|
G--6-6--6-------------------------------------------------------------------|
D--4-4--6-------------------------------------------------------------------|
A-------4-------------------------------------------------------------------|
E----6----------------------------------------------------------------------|



Tabbed By: MattRevenger**DCMA_Familly**

Band:  Good Charlotte
Song:  Harlow's song(can't dream without you)
Album: Cardiology
Year:  2010

e----------------------------------------------------------------------------|
h----------------------------------------------------------------------------|
G--5-------------------------------------------------------------------------|
D--5--6--8--8----------------------------------------------------------------|
A--3--6--6--8----------------------------------------------------------------|
E-----4--6--6----------------------------------------------------------------|



e------------------------------------------------------------------------|
h---8---6--11--9p8-------------------------------------------------------|
G------------------------------------------------------------------------|
D------------------------------------------------------------------------|
A------------------------------------------------------------------------|
E------------------------------------------------------------------------|



e----------------------------------------------------------------------------|
h------6--------6---11-9-8--6-8-6--------------------------------------------|
G--5578-----7778-------------------8-----------------------------------------|
D----------------------------------------------------------------------------|
A----------------------------------------------------------------------------|
E----------------------------------------------------------------------------|



Tabbed By: MattRevenger**DCMA_Familly**

Band:  Good Charlotte
Song:  1979
Album: Cardiology
Year:  2010



Tuning: Standart E

C/B Chord
e---------|
b---1-----|
g---0-----|
d---2-----|
a---2-----|
E---x-----|



Intro: C,F,Am,G

Oh oh ohhh

F  G
Oh oh ohhh

C             F
Life was simple,
               Am                  G             C
Roger was working round the clock to make a living,
F              Am                  G             C
No computers, none of that, he used his two hands,
F              Am
Ignored the cold war

G        C      F   Am     G
His wife would keep him warm,
C            F
On the weekends,
               Am                  G               C
He'd load the car up with the kids and they'd go fishing,
F              Am                  G               C
No need to work an extra job, there's no recession,
F              Am
Damn right he smiled a lot
G              C
They lay awake at night
F        Am
So in love

G                     C
It was a good good year
F
Oh oh ohhh
Am                G
The kids were all right,
C                  F           Am       G
"Highway to Hell" beat up "Stayin' Alive",
C                    F
The songs were on the radio
Am                  G
And mum and dad were still in love,
C       F     Am
In 1979
G                      C
It was a good, good year.




C             F
In the morning,
           Am                  G             C
Robin always woke up early in the kitchen,


F              Am                  G             C
She'd make the coffee, pack his lunch and then she'd kiss him
F              Am
And he would hold her tight
G        C      F   Am     G
When they were newlyweds
C            F
He'd say maybe
Am                  G               C
And she would laugh, they knew they'd have another baby
F              Am                  G               C
She'd slave away all day until dinner was ready,
F              Am                  G             C   F  Am
And they would dance so slow to "Just the Way You Are".

G                     C
It was a good good year
F
Oh oh ohhh
Am                G
The kids were all right,
C                  F           Am       G
"Highway to Hell" beat up "Stayin' Alive",
C                    F
The songs were on the radio
Am                  G
And mum and dad were still in love,
C       F     Am
In 1979
G                      C
It was a good, good year.


Am                                       G
All the decades and the years have passed,
F                              C,C/B
Not every family is built to last,
Am                                G
No time can take away these memories
F
Remember when you said to me
G
That we'd be all right.

G                     C
It was a good good year


F
Oh oh ohhh
Am                G
The kids were all right,
C                  F           Am       G
"Highway to Hell" beat up "Stayin' Alive",
C                    F
The songs were on the radio
Am                  G
And mum and dad were still in love,
C       F     Am
In 1979
G                      C
It was a good, good year.

F
Oh oh ohhh
Am                G
Disco couldn't survive
C             F         Am         G
With the Dream Police and Rock N Roll High
C                         F
Blondie put out "Heart Of Glass"
Am                          G
And mom and dad bought their first house
C   F
In 1979
G
It was a good, good year.
G              C
It was a good, good year.




2nd Guitar(Little distortion)
e-----3------------------------------|
h---5--------------------------------|
g-5----------------------------------|
D------------------------------------|
A------------------------------------|
E------------------------------------|


e-3-1-0-3-|
h-5-1-1-3-|
g-5-2-2-4-|
D---------|
A---------|
E---------|


e--0-0-3-3-0-0-0-0--|
h-1-1-5-5-1-1-1-1---|
g2-2-5-5-2-2-0-0----|
D-------------------|
A-------------------|
E-------------------|

e--0-0-3-3-0-0-3-3--|
h-1-1-5-5-1-1-5-5---|
g2-2-5-5-2-2-5-5----|
D-------------------|
A-------------------|
E-------------------|


     End
e--3-0--------------------------------|
h-5--1--------------------------------|
g5---0--------------------------------|
D----2--------------------------------|
A----3--------------------------------|
E----3--------------------------------|


Tabbed By: MattRevenger**DCMA_Familly**

Band:  Good Charlotte
Song:  There she Goes
Album: Cardiology
Year:  2010


e------------------|
h------------------|
G------------------|
D--10---5--5---7-5-|
A--8----3--5---7-5-|
E--8----3--3---5-3-|

e------------------------------|
h------------------------------|
G------------------------------|
D---7--5-3-10--5------7--5--3--|
A---7--5-3-10--5------7--5--3--|
E---5--3-1-8---3------5--3--1--|

e-------|
h-------|
G-------|
D----10-|
A----8--|
E----8--|


Tabbed By: MattRevenger**DCMA_Familly**

Band:  Good Charlotte
Song:  Right Where I belong
Album: Cardiology
Year:  2010

e------------------------------------------------------------------------|
h------------------------------------------------------------------------|
G--13-13-13-1331311313113-13-13------------------------------------------|
D------------------------------------------------------------------------|
A------------------------------------------------------------------------|
E------------------------------------------------------------------------|


e-----------------------------------------------------------------------|
h-----------------------------------------------------------------------|
G--6-6------6--1011-1011---8--11-6--------------------------------------|
D-----------------------------------------------------------------------|
A--4-4------4--8-9--8--9---6--9--4--------------------------------------|
E-----------------------------------------------------------------------|



e-----------------------------------------------------------------------|
h-----------------------------------------------------------------------|
G--6-5--6--1010-6-8-11-6-8----------------------------------------------|
D-----------------------------------------------------------------------|
A--4-3--4--8-9--4-6-9--4-6----------------------------------------------|
E-----------------------------------------------------------------------|
comments
We did not receive enough feedback on this tab! Please rate:
print report bad tab
1 2 3 4 5
I want to post or [tab]
guest
You may want to rate the tab now too:
select rating
Please do not post tabs as comments. Select "correction" instead!