Oops, an error
Loading. Please wait.

Change Tab

version 1
version 1

Acoustic

Whole song

5,575 views 3 this week
3 commentsread comments
1 2 3 4 5
excellent!
x 7
add to favorites
launch autoscroll
font size
0
reset
how to read this tab
guitar tuner
Autoscroll
slow
fast
+/-
esc
set tempo
stop
Help us to improve Ultimate-Guitar.com Take our survey!
×
CHANGE (ACOUSTIC) - Good Charlotte


Tabbed by: traci
email: supergirlcantwalk@hotmail.com

Intro
 Em7  G  Em7  G 
E-3---3---3---3
B-3---3---3---3
G-0---0---0---0
D-2---0---2---0
A-2---2---2---2
E-0---3---0---3   play twice

Verse One and Two
"i am lost in the see through..."
 Em7  G
E-3---3
B-3---3
G-0---0
D-2---0
A-2---2
E-0---3 play 4x

Bridge One
"each day just drags on by..."
  D   G   
E-2---3
B-3---3
G-2---0
D-0---0
A-0---2
E-0---3 play twice

"just when i think i could die..."
  D   G   C   D
E-2---3---0---2
B-3---3---1---3
G-2---0---0---2
D-0---0---2---0
A-0---2---3---0
E-----3---3----

Chorus
"and you sang...you cant change..."
  G  A7sus4  C   D  Dsus D   G
E-3---3------0---2---3---2---3
B-3---3------1---3---3---3---3
G-0---0------0---2---2---2---0
D-0---2------2---0---0---0---0
A-2---0------3---0---0---0---2
E-3---0------3---------------3  play 4x

Guitar Interlude
  G  A7sus4  C   D  Dsus D   G
E-3---3------0---2---3---2---3
B-3---3------1---3---3---3---3
G-0---0------0---2---2---2---0
D-0---2------2---0---0---0---0
A-2---0------3---0---0---0---2
E-3---0------3---------------3 play twice

  G  A7sus4  C   D  Dsus D  Em7
E-3---3------0---2---3---2---3
B-3---3------1---3---3---3---3
G-0---0------0---2---2---2---0
D-0---2------2---0---0---0---2
A-2---0------3---0---0---0---2
E-3---0------3---------------0

 Em7  G  Em7  G 
E-3---3---3---3
B-3---3---3---3
G-0---0---0---0
D-2---0---2---0
A-2---2---2---2
E-0---3---0---3 

Verse Two (same as verse one)

Bridge 2
"i practiced all the things id say"
  D   Am  
E-2---0
B-3---1
G-2---2
D-0---2
A-0---0
E-0---0 play 3x

  D   C 
E-2---0
B-3---1
G-2---0
D-0---2
A-0---3
E-0---3

Chorus and fade
Suggest correction
comments
print report bad tab
3 comments total.
0 reply
darkdrake19 20 wrote on October 28 2004, 12:00 am

Eb-5-/-3---3---
Bb-7-/-5---3---
Gb-0-/-0---0---
Db-x-/-x---x---
Ab-7-/-5---3---
Eb-------------
strumming isnt tabbed of course but listen to the song.
thats the intro. and verse

chorus
Eb-3---3---
Bb-3---3--
Gb-0---0---
Db-0---2--
Ab-2---3---
Eb-3-----

bridge

Eb-3---3---3---
Bb-1---4---3---
Gb-2---5---0---
Db-2---5---0---
Ab-----3---x---
Eb-----3---3---


Eb-3---3---3---
Bb-1---4---3---
Gb-2---5---0---
Db-2---5---0---
Ab-----3---x---
Eb-----3---3---


Eb-3---3---
Bb-1---4---
Gb-2---5---
Db-2---5---
Ab-----3---
Eb-----3---

chorus

outro

Eb-2---3---2---3---2---3---3
Bb-3---1---3---1---3---1---0
Gb-4---2---4---2---4---2---0
Db-4---2---4---2---4---2---x
Ab-2-------2-------2-------3
Eb-2-------2-------2------

0 reply
darkdrake19 20 wrote on October 28 2004, 12:00 am

sorry wrong tab wrong song

0 reply
limbodean43 10 wrote on February 26 2009, 11:59 am

YEEEAAAAAHHHH...
the tab is 100% correct, ur wrong man!
the D is played, muting the E and A string...
4*

guest
You may want to rate the tab now too:
select rating
Please do not post tabs as comments. Select "correction" instead!