Oops, an error
Loading. Please wait.

Change Chords

version 3
version 3

Whole song

1,499 views 1 this week
no commentswrite comment
1 2 3 4 5
please rate
add to favorites
launch autoscroll
font size
0
reset
transpose
0
reset
display chords
guitar tuner
Autoscroll
slow
fast
+/-
esc
set tempo
stop
Help us to improve Ultimate-Guitar.com Take our survey!
×
Author
Difficulty
Good Charlotte - Change

Tabbed by:Gergely

Intro
  Em      C       Em      C       Em      C       Em      C
e|3-------3-------3-------3-------3-------3-------3-------3-----------------|
B|3-------3-------3-------3-------3-------3-------3-------3-----------------|
G|0-------0-------0-------0-------0-------0-------0-------0-----------------|
D|2-------2-------2-------2-------2-------2-------2-------2-----------------|
A|2-------3-------2-------3-------2-------3-------2-------3-----------------|
E|0---------------0---------------0---------------0-------------------------|

Verses
  Em      C       Em      C       Em      C       Em      C
e|3-------3-------3-------3-------3-------3-------3-------3-----------------|
B|3-------3-------3-------3-------3-------3-------3-------3-----------------|
G|0-------0-------0-------0-------0-------0-------0-------0-----------------|
D|2-------2-------2-------2-------2-------2-------2-------2-----------------|
A|2-------3-------2-------3-------2-------3-------2-------3-----------------|
E|0---------------0---------------0---------------0-------------------------|

Pre-Chorus
  D       Am      D       Am      D       Am      C       D........
e|2-------0-------2-------0-------2-------0-------3-------2-----------------|
B|3-------1-------3-------1-------3-------1-------3-------3-----------------|
G|2-------2-------2-------2-------2-------2-------0-------2-----------------|
D|0-------2-------0-------2-------0-------2-------2-------0-----------------|
A|--------0---------------0---------------0-------3-------------------------|
E|--------------------------------------------------------------------------|

Chorus: D is Dsus4/D in the Chorus.
  G   C   Am  D   G   C   Am  D   G   C   Am  D   G   C   Am  D
e|3---3---0---3---3---3---0---3---3---3---0---3---3---3---0---3-------------|
B|3---3---1---3---3---3---1---3---3---3---1---3---3---3---1---3-------------|
G|0---0---2---2---0---0---2---2---0---0---2---2---0---0---2---2-------------|
D|0---2---2---0---0---2---2---0---0---2---2---0---0---2---2---0-------------|
A|2---3---0-------2---3---0-------2---3---0-------2---3---0-----------------|
E|3---------------3---------------3---------------3-------------------------|

  G   C   Am  D........
e|3---3---0---2-------------------------------------------------------------|
B|3---3---1---3-------------------------------------------------------------|
G|0---0---2---2-------------------------------------------------------------|
D|0---2---2---0-------------------------------------------------------------|
A|2---3---0-----------------------------------------------------------------|
E|3-------------------------------------------------------------------------|

Verses
  Em      C       Em      C       Em      C       Em      C
e|3-------3-------3-------3-------3-------3-------3-------3-----------------|
B|3-------3-------3-------3-------3-------3-------3-------3-----------------|
G|0-------0-------0-------0-------0-------0-------0-------0-----------------|
D|2-------2-------2-------2-------2-------2-------2-------2-----------------|
A|2-------3-------2-------3-------2-------3-------2-------3-----------------|
E|0---------------0---------------0---------------0-------------------------|

Pre-Chorus
  D       Am      D       Am      D       Am      C       D........
e|2-------0-------2-------0-------2-------0-------3-------2-----------------|
B|3-------1-------3-------1-------3-------1-------3-------3-----------------|
G|2-------2-------2-------2-------2-------2-------0-------2-----------------|
D|0-------2-------0-------2-------0-------2-------2-------0-----------------|
A|--------0---------------0---------------0-------3-------------------------|
E|--------------------------------------------------------------------------|

Chorus
  G   C   Am  D   G   C   Am  D   G   C   Am  D   G   C   Am  D
e|3---3---0---3---3---3---0---3---3---3---0---3---3---3---0---3-------------|
B|3---3---1---3---3---3---1---3---3---3---1---3---3---3---1---3-------------|
G|0---0---2---2---0---0---2---2---0---0---2---2---0---0---2---2-------------|
D|0---2---2---0---0---2---2---0---0---2---2---0---0---2---2---0-------------|
A|2---3---0-------2---3---0-------2---3---0-------2---3---0-----------------|
E|3---------------3---------------3---------------3-------------------------|

  G   C   Am  D   G   C   Am  D   G   C   Am  D   G   C   Am  D   G..........
e|3---3---0---3---3---3---0---3---3---3---0---3---3---3---0---2---3---------|
B|3---3---1---3---3---3---1---3---3---3---1---3---3---3---1---3---3---------|
G|0---0---2---2---0---0---2---2---0---0---2---2---0---0---2---2---0---------|
D|0---2---2---0---0---2---2---0---0---2---2---0---0---2---2---0---0---------|
A|2---3---0-------2---3---0-------2---3---0-------2---3---0-------2---------|
E|3---------------3---------------3---------------3---------------3---------|
Suggest correction
Give kudos to tab author, rate the tab!
1 2 3 4 5
comments
print report bad tab
guest
You may want to rate the tab now too:
select rating
Wanna post a correction for this tab? Suggest correction