Oops, an error
Loading. Please wait.

Clique Tab

627 views 6 this week
no commentswrite comment
1 2 3 4 5
please rate
add to favorites
launch autoscroll
font size
0
reset
how to read this tab
guitar tuner
Tab Pro tools
  • play this tab
  • loop segment
  • change instrument
  • show fretboard
  • metronome
×
Best way to learn
"Clique"
Autoscroll
slow
fast
+/-
esc
set tempo
stop
Clique
by Good Charlotte
tabbed by Roy Rules

this is absolutely correct. U silly emo kids need to learn how to play guitar,
and u need to learn how to spell your song titles! It's "Clique" not "Click"!
While this song doesn't have the awesome power of ska, it's still a good song.
Im one of those rare punkers that actually listens to emo, though its still
not ska!


  MAIN RIFF (guitar 1)
E------------------------------------------------------------|
B------------------------------------------------------------|
G------------------------------------------------------------|
D--0-2\4-2-0-2\4-2-0-2\4-2-4-5/4-2-0-2\4-2-0-2\4-0-2\4-2-0---|
A------------------------------------------------------------|
E------------------------------------------------------------|

 (guitar 2)
E----------------|
B----------------| guitar 2 plays these chords under the main riff. the first
G--7-------------| couple of times guitar 2 lets the chords ring a couple of
D--7----7----5---| times then he pm and strums the G5 then just bangs on the
A--5----7----5---| chords.
E-------5----3---|

 1st VERSE
E-----------------------------------------------------------------|
B-----------------------------------------------------------------|
G--7--------------------------------------------------------------|
D--7--7-7-7-7-7-7-7--------------5--------------------------------|
A--5--5-5-5-5-5-5-7--7-7-7-7-7-7-5--5-5-5-5-5-5-5-5-5-5-5-5-5-5---|
E-----------------5--5-5-5-5-5-5-3--3-3-3-3-3-3-3-3-3-3-3-3-3-3---|
     pm..........   pm..........   pm...........................

 1st PRE-CHORUS
E----------------------------------------------------|
B----------------------------------------------------| at some point guitar 1
G------7-----7---------------------------------------| starts to play the
D--7-7-7-7-7-7-----7-----7-----5-----5-----5-----5---| main riff over this.
A--5-5-5-5-5-5-7-7-7-7-7-7-5-5-5-5-5-5-5-5-5-5-5-5---|
E--------------5-5-5-5-5-5-3-3-3-3-3-3-3-3-3-3-3-3---|
  pm..  pm..  pm..  pm..  pm..  pm..  pm..  pm..
 CHORUS
E----------------------------------------------------------------------------|
B----------------------------------------------------------------------------|
G--7-7-7-7-7-7-7-7-------------------------------------------------7-7-7-7-7-|
D--7-7-7-7-7-7-7-7-7-7-7-7-7-7-7-7-9-9-9-9-9-9-9-9-5-5-5-5-5-5-5-5-7-7-7-7-7-|
A--5-5-5-5-5-5-5-5-7-7-7-7-7-7-7-7-9-9-9-9-9-9-9-9-5-5-5-5-5-5-5-5-5-5-5-5-5-|
E------------------5-5-5-5-5-5-5-5-7-7-7-7-7-7-7-7-3-3-3-3-3-3-3-3-----------|

 CHORUS (cont.)
E---------------------------------------------------------|
B---------------------------------------------------------|
G-7-7-7---------------------------------------------------|
D-7-7-7-7-7-7-7-7-7-7-7-5-5-5-5-5-5-5-5-5-5-5-5-5-5-5-5---|
A-5-5-5-7-7-7-7-7-7-7-7-5-5-5-5-5-5-5-5-5-5-5-5-5-5-5-5---|
E-------5-5-5-5-5-5-5-5-3-3-3-3-3-3-3-3-3-3-3-3-3-3-3-3---|

 2nd VERSE
E----------------------------------------------------------------|
B----------------------------------------------------------------|
G--7-------------------------------------------------------------|
D--7--7-7-7-7-7-7-7--------------9--------------5----------------|
A--5--5-5-5-5-5-5-7--7-7-7-7-7-7-9--9-9-9-9-9-9-5--5-5-5-5-5-5---|
E-----------------5--5-5-5-5-5-5-7--7-7-7-7-7-7-3--3-3-3-3-3-3---|
     pm..........   pm..........   pm..........   pm..........

 2nd PRE-CHORUS
E----------------------------------------------------|
B----------------------------------------------------|
G------7-----7---------------------------------------|
D--7-7-7-7-7-7-----7-----7-----9-----9-----5-----5---|
A--5-5-5-5-5-5-7-7-7-7-7-7-9-9-9-9-9-9-5-5-5-5-5-5---|
E--------------5-5-5-5-5-5-7-7-7-7-7-7-3-3-3-3-3-3---|
  pm..  pm..  pm..  pm..  pm..  pm..  pm..  pm..

 BRIDGE
E----------------|
B----------------| the first couple of times they just hit the chords and let
G--7-------------| them ring then they start strumming 'em. guitar 1 manages
D--7----7----5---| to throw in some part of the main riff during the bridge
A--5----7----5---| to. You dont have to do that though.
E-------5----3---|

outro chords same as bridge

 lead at end
E--------------|
B--------------|
G--------------|
D--4\5/4/2-0---|
A--------------|
E--------------|


during the last chorus it's the same chords they just slow it down and throw
in some muted strumming (where u just cover up the string and stead of
pushing them down and strum creating a whucka whucka sound) its an easy song
that only I the great Roy can figure how to play properly. have fun u silly
emo kids! and remember to listen to ska music and keep on skankin'!
comments
We did not receive enough feedback on this tab! Please rate:
print report bad tab
1 2 3 4 5
I want to post or [tab]
guest
You may want to rate the tab now too:
select rating
Please do not post tabs as comments. Select "correction" instead!