Oops, an error
Loading. Please wait.

Counting The Days Bass Tab

version 1
version 1

Whole song

Interactive

1,462 views 9 this week
4 commentsread comments
1 2 3 4 5
excellent!
x 5
add to favorites
launch autoscroll
font size
0
reset
guitar tuner
Autoscroll
slow
fast
+/-
esc
set tempo
stop
Help us to improve Ultimate-Guitar.com Take our survey!
×
Author
Difficulty
Tuning
novice
D# G# C# F# A# D#
Artist: Good Charlotte
Song: Counting The Days
Album: Cardiology (2010)
tabbed by: necriononguitar
e-mail (No SPAM!): tim.rathgen@gmx.de

REAL FANS SUPPORT BANDS BY PURCHASING THEIR CDS!


Tuning: Half-Step Down

. = Palm-Muted
~ = hold note
^ = vibrate
p = pull off
h = hammer on
/ = slide up
\ = slide down


Notice: This song be played with a 5 string bass (low B) but since i dont have one and i 
noone actually carries one of those to play a pop-punk song, i just make this tab for 4 
bass
Enjoy! :D

"""Intro/Verse I"""   No Bass til 0:12
G--------------------------------------------|
D--------------------------------------------|
A---7~------6~------4~-----------------------|
E---------------------------5~---------------|


"""Chorus"""    U can play all the notes half time if u want to... (x8)
G---------------------------------------------------------------------------|
D---------------------------------------------------------------------------|
A----7-x16-----2-x16-----4-x16------------------------2-x16----4-x16--------|
E---------------------------------5-x16-------0-x16--------------------5~---|


"""Verse II"""    () 5th string 2nd fret needed here
G-----------------------------------------------()------------------------|
D-------------------------------------------------------------------------|
A----7~--------------6~---(6)/14-14--------4~-----------------------------|
E---------0-0------------------------------------9-9--------5~----5-5-----|


"""Pre-Chorus"""
G---------------------------------------------------------------------------|
D---------------------------------------------------------------------------|
A----7-7-7-7-7-7/--14-14-----6-6-6-6-6-6/--14-14-----4-4-4-4-4-4-4-4--------|
E----------------------------------------------------------------------5~---|


"""Chorus""" u can play all the notes half time if u want to... (x8)
G---------------------------------------------------------------------------|
D---------------------------------------------------------------------------|
A----7-x16-----2-x16-----4-x16----12-x16--------------2-x16----4-x16---12~--|
E---------------------------------------------0-x16-------------------------|


"""Bridge"""   () Improvisation missing, update later
G--------------------------------------------------------------------------|
D--------------------------------------------------------------------------|
A-----4---4---4-4-4----4---4---4-4-4---------------------------------------|
E----------------------------------------5---5---5-5-5----5---5---5-5-5----|

G---------------------------------------------()---------------------------|
D--------------------------------------------------------------------------|
A----------------------------------------2---2---2-2-2---2---2---2-2-2-----|
E-----0---0---0-0-0----0---0---0-0-0----------()---------------------------|


G--------------------------------------------------------------------------|
D--------------------------------------------------------------------------|
A-----4---4---4-4-4----4---4---4-4-4---------------------------------------|
E----------------------------------------5---5---5-5-5----5---5---5-5-5----|

G----------------------------------------------------------------------------|
D----------------------------------------------------------------------------|
A----------------------------------------2-2-2-2-2-2-2-2-2--2-2-2-2-2-2-2-2--|
E-----0---0---0-0-0----0---0---0-0-0-----------------------------------------|

G--------------------------------------------------------------|
D--------------------------------------------------------------|
A-----2-2-2-2--4-4-4-4---6-6-6-6-6-6-6-6---7~-------(7)\-------|
E--------------------------------------------------------------|


"""Break"""
No Bass!


"""Chorus"""
G-----------------------------------------------------------------------------|
D-----------------------------------------------------------------------------|
A---7-x16-----2-x16-----4-x16---------------7-x16----6-x16----4-x16-----------|
E--------------------------------5-x16--------------------------------5-x16-~-|


"""Outro"""
G-----------------------------------------------()-------------------|
D--------------------------------------------------------------------|
A----7~--------------6~---(6)/14-14--------4~------------------------|
E---------0-0------------------------------------9-9--------5~-------|

and thats it! i hope this helped, dont forget to rate and comment!

Cheers...
Suggest correction new What's this?
You can suggest a correction to this tab. Community and Mods will review your correction and vote to approve or reject it.
comments
print report bad tab
4 comments total. Showing first comments.
0 reply
RocknRollKing 47 wrote on August 19 2010, 04:55 pm

great tab bud!

0 reply
WillFail4Games 12 wrote on January 6 2013, 12:25 am

Awesome Tab! I just have one question though: What do you mean when you say that () means the fifth string is needed? I understand it but I get confused on what to play when you put (6) on the A and () on the G. If somebody could just explain that to me, that would be much appreciated! Awesome tab for an awesome song for one of my favorite bands!

0 reply
necriononguitar 6,672 wrote on January 20 2013, 08:46 am

@WIllFail4Games in general (number) means that you can play the note if you want to although since everyone has their own technique, i sometimes put these because otherwise people might get confused with all the notes they should play independently. () alone has a different meaning tho.
i now realize i didnt really put much thought into that :D

guest
You may want to rate the tab now too:
select rating
Please do not post tabs as comments. Select "correction" instead!