Oops, an error
Loading. Please wait.

Dance Floor Anthem Bass Tab

version 1
version 1

Whole song

Interactive

6,568 views 3 this week
11 commentsread comments
1 2 3 4 5
x 5
add to favorites
launch autoscroll
font size
0
reset
guitar tuner
Autoscroll
slow
fast
+/-
esc
set tempo
stop
Help us to improve Ultimate-Guitar.com Take our survey!
×
Author
Dance Floor Anthem
Good Charlotte
Good Morning Revival (2007)


Intro (Start Playing when the rhythm guitar comes in)
G|-----------------------------------------------------------------|
D|-------------------4444444444444444------------------44444444----|
A|--2222222222222222-----------------------------------------------|
E|------------------------------------1111111111111111-------------|

Verse 1
G|----------------------------------------------------------------|
D|----------------------------------------------------------------|
A|------------------------1/6------4--4--4--4---------------------|
E|----------------------------------------------------------------|

G|----------------------------------------------------------------|
D|----------------------------------------------------------------|
A|--4--4--44--4--4444--4--4--44--5--4--4--4--4--44444-------------|
E|----------------------------------------------------------------|

Chorus
G|-----------------------------------------------------------------|
D|-------------------4444444444444444------------------44444444----|
A|--2222222222222222-----------------------------------------------|
E|------------------------------------1111111111111111-------------|x2

Verse 2
G|----------------------------------------------------------------|
D|----------------------------------------------------------------|
A|-----------6/2----------1/6------4--4--4--4---------------------|
E|----------------------------------------------------------------|

G|----------------------------------------------------------------|
D|----------------------------------------------------------------|
A|--4--4--44--4--4444--4--4--44--5--4--4--4--4--44444-------------|
E|----------------------------------------------------------------|

Chorus
G|-----------------------------------------------------------------|
D|-------------------4444444444444444------------------44444444----|
A|--2222222222222222-----------------------------------------------|
E|------------------------------------1111111111111111-------------|x2

Rest Until Chorus

Chorus
G|-----------------------------------------------------------------|
D|-------------------4444444444444444------------------44444444----|
A|--2222222222222222-----------------------------------------------|
E|------------------------------------1111111111111111-------------|x2

Outro
G|-------------------------------------|
D|-------------------------------------|
A|--4--4--44--4--4--44--4--------------|x4
E|-------------------------------------|
Then
G|-------------------------------------|
D|-------------------------------------|
A|--6666/2-----------------------------|
E|-------------------------------------|

If you play along with the song you will know when to come in because there
are a lot of rests, long ones. If you have corrections on any of my tabs
e-mail me Fire37mm@AOL.com. Pwnage. Long live Good Ccharlotte and 
Four(4) Reasons!
Suggest correction
comments
print report bad tab
11 comments total. Showing first comments.
+1 reply
aidypie 93 May 10, 2007 08:22 PM

hey man not bad tab altho i found a few errors. the chorus doesnt sound on at all. i think the 4 shud be on the D string and the 1 on the E string, but its not even 16 nots of each, it goes from 2 on the A string to 4 on the D string then to 1 on the E string. i dont know its hard to time. but besides that it wasnt too bad. good job. and the rests were hard i know. ill give it 4 stars.

0 reply
Thirty7mm 301 May 12, 2007 06:15 PM

Hey thanks, this is one of my first tabs, I'll fix it according to your comment.

0 reply
Master Basser 178 Jun 26, 2007 12:02 PM

Nothing is right. Sorry man.

guest
You may want to rate the tab now too:
select rating
Wanna post a correction for this tab? Suggest correction