Oops, an error
Loading. Please wait.

Dance Floor Anthem Tab

version 1
version 1

Whole song

Interactive

57,926 views 3 this week
10 commentsread comments
1 2 3 4 5
accurate
x 28
add to favorites
launch autoscroll
font size
0
reset
how to read this tab
guitar tuner
Autoscroll
slow
fast
+/-
esc
set tempo
stop
Help us to improve Ultimate-Guitar.com Take our survey!
×
Author
Artist: Good Charlotte
Song: Dance Floor Anthem
Album: Good Morning Revival
Tabbed By: wcft01@hotmail.com

~ = vibrato
\ = Slide Down
/ = slide Up
^ = Bend String
x = Mute String (Dead Note)
* = Harmonic
> = Let Ring
. = Palm Mute

Standard Tuning (EADGBE)


INTRO

Guitar 1
E-----------|-----------|-----------|---------------------|
B-----------|-----------|-----------|-****-****-----------|
G-3-3-3-----|-3-3-3-----|-3-3-3-----|-9999-7777-****-****-|
D-1-1-1-----|-1-1-1-----|-1-1-1-----|-----------9999-7777-|
A-----------|-----------|-----------|---------------------|
E-----------|-----------|-----------|---------------------|
                                         
E------------------|------------------|
B------------------|------------------|
G-16---20-18-16-15-|-16---20-18-16-18-|
D-x----x--x--x--x--|-x----x--x--x--x--|
A-14---18-16-14-13-|-14---18-16-14-16-|
E------------------|------------------|

Guitar 2 (comes in after harmonics)
E-----------------|      |-----------------|      |-----------------|
B-----------------|  x2  |-----------------|  x2  |-----------------|  x2
G-4-4-4-4-4-4-4-4-|      |-8-8-8-8-8-8-8-8-|      |-4-4-4-4-4-4-4-4-|
D-4-4-4-4-4-4-4-4-|      |-8-8-8-8-8-8-8-8-|      |-4-4-4-4-4-4-4-4-|
A-2-2-2-2-2-2-2-2-|      |-6-6-6-6-6-6-6-6-|      |-2-2-2-2-2-2-2-2-|
E-----------------|      |-----------------|      |-----------------| 

E-----------------|
B-----------------|
G-6-6-6-6-6-6-6-6-|
D-6-6-6-6-6-6-6-6-|
A-4-4-4-4-4-4-4-4-|
E-----------------| 

 
VERSE 1
            . . . . . . . .   . . . . . . . .   . . . . . . . .
E---------|-----------------|-----------------|-----------------|
B---------|-----------------|-----------------|-----------------|
G-8>------|-----------------|-----------------|-----------------|
D---------|-----------------|-----------------|-----------------|
A---------|-6-6-6-6-6-6-6-6-|-6-6-6-6-6-6-6-6-|-4-4-4-4-4-4-4-4-|
E---------|-----------------|-----------------|-----------------|
            . . . . . . . .   . . . . . . . .   . . . . . . . .
  . . . . . . . .   . . . . . . . .   . . . . . . . .
E-----------------|-----------------|-----------------|
B-----------------|-----------------|-----------------|
G-----------------|-----------------|-----------------|
D-----------------|-----------------|-----------------|
A-4-4-4-4-4-4-4-4-|-9-9-9-9-9-9-9-9-|-9-9-9-9-9-9-9-9-|
E-----------------|-----------------|-----------------|
  . . . . . . . .   . . . . . . . .   . . . . . . . .
  . . . . .   
E-------------------|
B-------------------|
G-------------------|
D-------------------|
A-----------99-11\--|
E-7-7-7-7-7-77-9-\--|
  . . . . . 


CHORUS

Guitar 1
E------------------|-------------|
B------------------|-------------|   x2
G-16---20-18-16-15-|-16----18----|
D-x----x--x--x--x--|-x-----x-----|
A-14---18-16-14-13-|-14----16----|
E------------------|-------------|

Guitar 2 
E-----------------|      |-----------------|        x3 
B-----------------|  x2  |-----------------|  x2  
G-4-4-4-4-4-4-4-4-|      |-8-8-8-8-8-8-8-8-|      
D-4-4-4-4-4-4-4-4-|      |-8-8-8-8-8-8-8-8-|      
A-2-2-2-2-2-2-2-2-|      |-6-6-6-6-6-6-6-6-|      
E-----------------|      |-----------------|      

E-----------------|
B-----------------|  x2
G-6-6-6-6-6-6-6-6-|
D-6-6-6-6-6-6-6-6-|
A-4-4-4-4-4-4-4-4-|
E-----------------|


POST CHORUS 1

E-----------|
B-----------|
G-----------|
D-8-8-8\----|
A-6-6-6\----|
E-----------|


VERSE 2

Guitar 1
  . . . . . . . .   . . . . . . . .   . . . . . . . .
E-----------------|-----------------|-----------------|
B-----------------|-----------------|-----------------|
G-----------------|-----------------|-----------------|
D-----------------|-----------------|-----------------|
A-6-6-6-6-6-6-6-6-|-6-6-6-6-6-6-6-6-|-4-4-4-4-4-4-4-4-|
E-----------------|-----------------|-----------------|
  . . . . . . . .   . . . . . . . .   . . . . . . . .
  . . . . . . . .   . . . . . . . .   . . . . . . . .
E-----------------|-----------------|-----------------|
B-----------------|-----------------|-----------------|
G-----------------|-----------------|-----------------|
D-----------------|-----------------|-----------------|
A-4-4-4-4-4-4-4-4-|-9-9-9-9-9-9-9-9-|-9-9-9-9-9-9-9-9-|
E-----------------|-----------------|-----------------|
  . . . . . . . .   . . . . . . . .   . . . . . . . .
  . . . . . . . .   . . . . . . . .   . . . . . . . .
E-----------------|-----------------|-----------------|
B-----------------|-----------------|-----------------|
G-----------------|-----------------|-----------------|
D-----------------|-----------------|-----------------|
A-----------------|-----------------|-6-6-6-6-6-6-6-6-|
E-7-7-7-7-7-7-7-7-|-7-7-7-7-7-7-7-7-|-----------------|
  . . . . . . . .   . . . . . . . .   . . . . . . . .
  . . . . . . . .   . . . . . . . .   . . . . . . . .
E-----------------|-----------------|-----------------|
B-----------------|-----------------|-----------------|
G-----------------|-----------------|-----------------|
D-----------------|-----------------|-----------------|
A-6-6-6-6-6-6-6-6-|-4-4-4-4-4-4-4-4-|-4-4-4-4-4-4-4-4-|
E-----------------|-----------------|-----------------|
  . . . . . . . .   . . . . . . . .   . . . . . . . .
  . . . . . . . .   . . . . . . . .   . . . . .
E-----------------|-----------------|-------------------|
B-----------------|-----------------|-------------------|
G-----------------|-----------------|-------------------|
D-----------------|-----------------|-------------------|
A-9-9-9-9-9-9-9-9-|-9-9-9-9-9-9-9-9-|-----------99-11\--|
E-----------------|-----------------|-7-7-7-7-7-77-9-\--|
  . . . . . . . .   . . . . . . . .   . . . . .


Guitar 2  (comes in halfway through Verse)
E----------------|---------------|---------------------|----------|
B----------------|---------------|---------------------|----------|
G----------------|---------------|---------------------|----------|
D-8-8---8---888--|-6-6---6---666-|-11-11---11---111111-|----------|
A-6-6---6---666--|-4-4---4---444-|-9--9----9----9-9-9--|-9-9------|
E----------------|---------------|---------------------|-7-7------|
 

<>


POST CHORUS 2

Guitar 1
E---------------------------|
B---------------------------|    x4
G-------------------13------|
D-/11-11-1111-11-11----11~\-|
A-/9--9--9-9--9--9----------|
E---------------------------|

Guitar 2
  ........
E----------|
B----------|  * Heard throughout Post Chorus
G-66666666-|
D----------|
A----------|
E----------|
  ........

BRIDGE

Guitar 1
  . . . . . . . .   . . . . . . . .
E-----------------|-----------------|
B-----------------|-----------------|   x3 
G-6-6-6-6-6-6-6---|-----------------|
D---------------6-|-6-6-6-8-8-8-8-8-|
A-----------------|-----------------|
E-----------------|-----------------|
  . . . . . . . .   . . . . . . . .

  . . . . . . . 
E-----------------|-----------------|
B-----------------|-----------------|    
G-6-6-6-6-6-6-6---|-----------------|
D---------------6-|-6-6-6-6-6-6-6-6-|
A---------------4-|-4-4-4-4-4-4-4-4-|
E-----------------|-----------------|
  . . . . . . . 

E----------------|---------------|----------------------|
B----------------|---------------|----------------------|
G----------------|---------------|----------------------|
D-8-8---88--888--|-6-6---66--666-|-11-11---1111--111111-|
A-6-6---66--666--|-4-4---44--444-|-9--9----9-9---9-9-9--|
E----------------|---------------|----------------------|

E--------------|
B--------------|
G--------------|
D--------------|
A-9-9--999-11\-|
E-7-7--777-9-\-|


<>


End On
E------------|
B------------|
G------------|
D-11\--------|
A-9-\--------|
E------------|

Suggest correction
comments
print report bad tab
10 comments total. Showing first comments.
0 reply
corych 15 wrote on May 17 2007, 03:19 pm

great job! :)

0 reply
Matt_FB 20 wrote on June 5 2007, 06:41 am

Love it! Well done on this one.

0 reply
dane619 159 wrote on June 8 2007, 03:26 am

good work mate 5 stars from me

guest
You may want to rate the tab now too:
select rating
Please do not post tabs as comments. Select "correction" instead!