Oops, an error
Loading. Please wait.

Dance Floor Anthem Tab

version 2
version 2

Whole song

Interactive

5,624 views 3 this week
4 commentsread comments
1 2 3 4 5
accurate
x 6
add to favorites
launch autoscroll
font size
0
reset
how to read this tab
guitar tuner
Autoscroll
slow
fast
+/-
esc
set tempo
stop
Help us to improve Ultimate-Guitar.com Take our survey!
×
Difficulty
novice
Hello there, I really love this song, so I tried to listen very carefully from the this 
to live performance. This is what I thought about this song when I played on my guitar

* = Harmonic
. = Palm Mute
~ = Let Ring
/ = Slide Up

INTRO                         **** **** **** ****
eb|------------|          eb|-----------------------|
Bb|------------|          Bb|-9999-7777-------------|
Gb|-9-9-9/-----| 3x THEN  Gb|-----------9999-7777---|
Db|-x-x-x/-----|          Db|-----------------------|
Ab|-7-7-7/-----|          Ab|-----------------------|
Eb|------------|          Eb|-----------------------|

eb|-------------------------------------------------------------|
Bb|-------------------------------------------------------------|
Gb|-5--5-5-5-5-5-5-5--9-9-9-9--7-7-7-7--5-5--4--4-4-4-4-4-4-4---|
Db|-x--x-x-x-x-x-x-x--x-x-x-x--x-x-x-x--x-x--x--x-x-x-x-x-x-x---|
Ab|-3--3-3-3-3-3-3-3--7-7-7-7--5-5-5-5--3-3--2--2-2-2-2-2-2-2---|
Eb|-------------------------------------------------------------|


eb|------------------------------------------------------------|
Bb|------------------------------------------5--5-5-5-5-5-5-5--|
Gb|-5--5-5-5-5-5-5-5--9-9-9-9--7-7-7-7--5-5--4--4-4-4-4-4-4-4--|
Db|-x--x-x-x-x-x-x-x--x-x-x-x--x-x-x-x--x-x--2--2-2-2-2-2-2-2--|
Ab|-3--3-3-3-3-3-3-3--7-7-7-7--5-5-5-5--3-3--2--2-2-2-2-2-2-2--|
Eb|------------------------------------------------------------|


VERSE
eb|---------|------------------------------------------------------------|
Bb|-5~~~~~--|------------------------------------------------------------|
Gb|---------|------------------------------------------------------------|
Db|---------|------------------------------------------------------------|
Ab|---------|--7-7-7-7-7-7-7-7-5-5-5-5-5-5-5-5-10-10-10-10-10-10-10-10---|
Eb|---------|------------------------------------------------------------|
               . . . . . . . . . . . . . . . . .  .  .  .  .  .  .  .

eb|----------------------------|
Bb|----------------------------|
Gb|----------------------------|
Db|----------------------------|
Ab|--------------10-10--12/----|
Eb|-8-8-8-8-8-8--8--8---10/----|
    . . . . . .


CHORUS
eb|-------------------------------------------------------------------|
Bb|-------------------------------------------------------------------|
Gb|-5-5-5-5-5-5-5-5-5-5-5-5-5-5-5-5--9-9-9-9-9-9-9-9-9-9-9-9-9-9-9-9--|
Db|-5-5-5-5-5-5-5-5-5-5-5-5-5-5-5-5--9-9-9-9-9-9-9-9-9-9-9-9-9-9-9-9--| 3x
Ab|-3-3-3-3-3-3-3-3-3-3-3-3-3-3-3-3--7-7-7-7-7-7-7-7-7-7-7-7-7-7-7-7--|
Eb|-------------------------------------------------------------------|

eb|-------------------------------------------------------------------|
Bb|-------------------------------------------------------------------|
Gb|-5-5-5-5-5-5-5-5-5-5-5-5-5-5-5-5--7-7-7-7-7-7-7-7-7-7-7-7-7-7-7-7--|
Db|-5-5-5-5-5-5-5-5-5-5-5-5-5-5-5-5--7-7-7-7-7-7-7-7-7-7-7-7-7-7-7-7--|
Ab|-3-3-3-3-3-3-3-3-3-3-3-3-3-3-3-3--5-5-5-5-5-5-5-5-5-5-5-5-5-5-5-5--|
Eb|-------------------------------------------------------------------|

POST CHORUS
eb|----------|
Bb|----------|
Gb|----------|
Db|-9-9-9/---|
Ab|-7-7-7/---|
Eb|----------|


2ND VERSE
eb|------------------------------------------------------------------------|
Bb|------------------------------------------------------------------------|
Gb|------------------------------------------------------------------------|
Db|------------------------------------------------------------------------|
Ab|-7-7-7-7-7-7-7-7-5-5-5-5-5-5-5-5-10-10-10-10-10-10-10-10----------------|
Eb|----------------------------------------------------------8-8-8-8-8-8---|
    . . . . . . . . . . . . . . . . .  .  .  .  .  .  .  .   . . . . . .


eb|----------------------------------------------------------|
Bb|----------------------------------------------------------|
Gb|-9-9---9--9-9-9---7-7---7--7-7-7---12-12---12--12-12-12---|
Db|-9-9---9--9-9-9---7-7---7--7-7-7---12-12---12--12-12-12---|
Ab|-7-7---7--7-7-7---5-5---5--5-5-5---10-10---10--10-10-10---|
Eb|----------------------------------------------------------|

eb|--------------------------|
Bb|--------------------------|
Gb|--------------------------|
Db|-10-10---10--10-10--12/---|
Ab|-10-10---10--10-10--12/---|
Eb|-8--8----8---8--8----8/---|


CHORUS
eb|-------------------------------------------------------------------|
Bb|-------------------------------------------------------------------|
Gb|-5-5-5-5-5-5-5-5-5-5-5-5-5-5-5-5--9-9-9-9-9-9-9-9-9-9-9-9-9-9-9-9--|
Db|-5-5-5-5-5-5-5-5-5-5-5-5-5-5-5-5--9-9-9-9-9-9-9-9-9-9-9-9-9-9-9-9--| 3x
Ab|-3-3-3-3-3-3-3-3-3-3-3-3-3-3-3-3--7-7-7-7-7-7-7-7-7-7-7-7-7-7-7-7--|
Eb|-------------------------------------------------------------------|

eb|-------------------------------------------------------------------|
Bb|-------------------------------------------------------------------|
Gb|-5-5-5-5-5-5-5-5-5-5-5-5-5-5-5-5--7-7-7-7-7-7-7-7-7-7-7-7-7-7-7-7--|
Db|-5-5-5-5-5-5-5-5-5-5-5-5-5-5-5-5--7-7-7-7-7-7-7-7-7-7-7-7-7-7-7-7--|
Ab|-3-3-3-3-3-3-3-3-3-3-3-3-3-3-3-3--5-5-5-5-5-5-5-5-5-5-5-5-5-5-5-5--|
Eb|-------------------------------------------------------------------|


eb|--------------------3-------|
Bb|-----------------------5----|
Gb|--7--7--7-7--7--7-----------| 4x
Db|--5--5--5-5--5--5-----------|
Ab|----------------------------|
Eb|----------------------------|


BRIDGE
eb|-----------------------------|       eb|----------------------------|
Bb|-----------------------------|       Bb|----------------------------|
Gb|-7-7-7-7-7-------------------|       Gb|-7-7-7-7-7-7----------------|
Db|-----------7-7-7-7-9-9-9-9---| 3X    Db|-------------7-7-7-7-7-7-7--|
Ab|-----------------------------|       Ab|-------------5-5-5-5-5-5-5--|
Eb|-----------------------------|       Eb|----------------------------|
    . . . . . . . . . . . . .               . . . . . .


eb|----------------------------------------------------------|
Bb|----------------------------------------------------------|
Gb|-9-9---9--9-9-9---7-7---7--7-7-7---12-12---12--12-12-12---|
Db|-9-9---9--9-9-9---7-7---7--7-7-7---12-12---12--12-12-12---|
Ab|-7-7---7--7-7-7---5-5---5--5-5-5---10-10---10--10-10-10---|
Eb|----------------------------------------------------------|

eb|--------------------------|
Bb|--------------------------|
Gb|--------------------------|
Db|-10-10---10--10-10--12/---|
Ab|-10-10---10--10-10--12/---|
Eb|-8--8----8---8--8----8/---|


CHORUS
eb|-------------------------------------------------------------------|
Bb|-------------------------------------------------------------------|
Gb|-5-5-5-5-5-5-5-5-5-5-5-5-5-5-5-5--9-9-9-9-9-9-9-9-9-9-9-9-9-9-9-9--|
Db|-5-5-5-5-5-5-5-5-5-5-5-5-5-5-5-5--9-9-9-9-9-9-9-9-9-9-9-9-9-9-9-9--| 3x
Ab|-3-3-3-3-3-3-3-3-3-3-3-3-3-3-3-3--7-7-7-7-7-7-7-7-7-7-7-7-7-7-7-7--|
Eb|-------------------------------------------------------------------|

eb|-------------------------------------------------------------------|
Bb|-------------------------------------------------------------------|
Gb|-5-5-5-5-5-5-5-5-5-5-5-5-5-5-5-5--7-7-7-7-7-7-7-7-7-7-7-7-7-7-7-7--|
Db|-5-5-5-5-5-5-5-5-5-5-5-5-5-5-5-5--7-7-7-7-7-7-7-7-7-7-7-7-7-7-7-7--|
Ab|-3-3-3-3-3-3-3-3-3-3-3-3-3-3-3-3--5-5-5-5-5-5-5-5-5-5-5-5-5-5-5-5--|
Eb|-------------------------------------------------------------------|

eb|--------------------3-------|          eb|-------|
Bb|-----------------------5----|          Bb|-------|
Gb|--7--7--7-7--7--7-----------| 4x THEN  Gb|--7/---|
Db|--5--5--5-5--5--5-----------|          Db|--5/---|
Ab|----------------------------|          Ab|-------|
Eb|----------------------------|          Eb|-------|


That's about it! I hope you'll enjoy it!
Suggest correction
comments
print report bad tab
4 comments total. Showing first comments.
+1 reply
trentskis 51 wrote on September 26 2007, 11:47 pm

ur ****n stupid u dont need to have it in droped tuning unless theyre zeros in it
god damn

0 reply
hurley99 30 wrote on September 28 2007, 12:36 am

What's your problem? I made this tab just for everyone, and make this tab easier to play and understandable. I think my tab is good,and I like it

BTW, sorry that i didn't register before summit my tab. the truth is, yes, i made this tab.

0 reply
ritalinkid 92 wrote on November 22 2007, 04:30 pm

trentskis, you don't make any sense...
This is a good tab. Good job, dude...

guest
You may want to rate the tab now too:
select rating
Please do not post tabs as comments. Select "correction" instead!