Oops, an error
Loading. Please wait.

Dance Floor Anthem Tab

version 3
version 3

Whole song

Interactive

1,977 views 1 this week
1 commentread comment
1 2 3 4 5
please rate
add to favorites
launch autoscroll
font size
0
reset
how to read this tab
guitar tuner
Tab Pro tools
  • play this tab
  • loop segment
  • change instrument
  • show fretboard
  • metronome
×
Best way to learn
"Dance Floor Anthem"
Autoscroll
slow
fast
+/-
esc
set tempo
stop
Difficulty
intermediate
Intro
|--------|--------|--------|---------------------|
|--------|--------|--------|-----------7777-9999-|
|-4-4-4--|-4-4-4--|-4-4-4--|-9999-7777-----------|
|-2-2-2--|-2-2-2--|-2-2-2--|---------------------|
|--------|--------|--------|---------------------|
|--------|--------|--------|---------------------|

Chorus
|-----------------------------------------------------------------------|
|-----------------------------------------------------------------------|
|-1717171717171717-212121-191919-1717-1616161616161616-1616161616161616-|
|--x-x-x-x-x-x-x-x--x-x-x--x-x-x--x-x--x-x-x-x-x-x-x-x--x-x-x-x-x-x-x-x-|
|-1515151515151515-191919-171717-1515-1414141414141414-1414141414141414-|
|-----------------------------------------------------------------------|

|-----------------------------------------------------------------------|
|-----------------------------------------------------------------------|
|-1717171717171717-212121-191919-1717-1919191919191919-1919191919191919-|
|--x-x-x-x-x-x-x-x--x-x-x--x-x-x--x-x--x-x-x-x-x-x-x-x--x-x-x-x-x-x-x-x-|
|-1515151515151515-191919-171717-1515-1717171717171717-1717171717171717-|
|-----------------------------------------------------------------------|

Verse I
|-----------------|-----------------|-----------------|-----------------|
|-----------------|-----------------|-----------------|-----------------|
|-----------------|-----------------|-----------------|-----------------|
|-----------------|-----------------|-----------------|-----------------|
|-7-7-7-7-7-7-7-7-|-7-7-7-7-7-7-7-7-|-5-5-5-5-5-5-5-5-|-5-5-5-5-5-5-5-5-|
|-----------------|-----------------|-----------------|-----------------|
  . . . . . . .   . . . . . . . . .   . . . . . . . .   . . . . . . . .

|-----------------|-----------------|-----------------|-----------------|
|-----------------|-----------------|-----------------|-----------------|
|-----------------|-----------------|-----------------|-----------------|
|-----------------|-----------------|-----------------|-----------------|
|-1010101010101010|-1010101010101010|-3-3-3-3-3-3-3-3-|-3-3-3-3-3-3-3-3-|
|-----------------|-----------------|-----------------|-----------------|
  . . . . . . . .   . . . . . . . .   . . . . . . . .   . . . . . . . .

Verse II
|-----|-----------------|-----------------|-----------------|-----------------|
|-----|-----------------|-----------------|-----------------|-----------------|
|4-4-4|-----------------|-----------------|-----------------|-----------------|
|2-2-2|-----------------|-----------------|-----------------|-----------------|
|-----|-7-7-7-7-7-7-7-7-|-7-7-7-7-7-7-7-7-|-5-5-5-5-5-5-5-5-|-5-5-5-5-5-5-5-5-|
|-----|-----------------|-----------------|-----------------|-----------------|
        . . . . . . . .   . . . . . . . .   . . . . . . . .   . . . . . . . . 

|-----------------|-----------------|-----------------|-----------------|
|-----------------|-----------------|-----------------|-----------------|
|-----------------|-----------------|-----------------|-----------------|
|-----------------|-----------------|-----------------|-----------------|
|-1010101010101010|-1010101010101010|-3-3-3-3-3-3-3-3-|-3-3-3-3-3-3-3-3-|
|-----------------|-----------------|-----------------|-----------------|
  . . . . . . . .   . . . . . . . .   . . . . . . . .   . . . . . . . .

|---------------------------|---------------------------|
|---------------------------|---------------------------|
|---------------------------|---------------------------|
|-9---9-------9---9---9-9-9-|-7---7-------7---7---7-7-7-|
|-7---7-7-7-7-7-7-7---7-7-7-|-5---5-5-5-5-5-5-5---5-5-5-|
|---------------------------|---------------------------|
|---------------------------|---------------------------|
|-Those are 12’s and 10’s!--|---------------------------|
|---------------------------|---------------------------|
|12--12------12--12--121212-|-5---5-------5---5---5-5-5-|
|10--10101010101010--101010-|-3---3-3-3-3-3-3-3---3-3-3-|
|---------------------------|---------------------------|

Bridge
|---------------------------------|
|---------------------------------|
|-------------------------14------|
|-12--12--12-12---12--12------12--|
|-10--10--10-10---10--10----------|
|---------------------------------|

|3x                             |1x                               |
|-------------------------------|---------------------------------|
|-------------------------------|---------------------------------|
|-7-7-7-7-7-7-7-----------------|-7-7-7-7-7-7-7-7-----------------|
|---------------7-7-7-7-9-9-9-9-|-----------------7-7-7-7-7-7-7-7-|
|-------------------------------|-----------------5-5-5-5-5-5-5-5-|
|-------------------------------|---------------------------------|

Verse III
|---------------------------|---------------------------|
|---------------------------|---------------------------|
|---------------------------|---------------------------|
|-9---9-----9-9-9---9-9-9-9-|11—-11----111111--11111111-|
|-7---7-----7-7-7---7-7-7-7-|-9---9-----9-9-9---9-9-9-9-|
|---------------------------|---------------------------

|---------------------------|---------------------------|
|---------------------------|---------------------------|
|---------------------------|---------------------------|
|-12--12----121212--12121212|-5—--5-----5-5-5---5-5-5-5-|
|-10--10----101010--10101010|-3---3-----3-3-3---3-3-3-3-|
|---------------------------|---------------------------|

Song Order

Intro
Chorus
Verse 1 (2x)
Chorus  (2x)
Verse 2 (2x)
Bridge
Verse 3
Chorus


That's it!  Send comments to legomyeggo64@aim.com!
comments
We did not receive enough feedback on this tab! Please rate:
print report bad tab
1 2 3 4 5
1 comment total.
0 reply
Barnmeister wrote on May 3 2011, 08:08 am

WRONG!!!! well parts, most seems correct to an extent

okay heres the intro


|--------|--------|--------|----------------7777-|
|--------|--------|--------|-5555------7777------|
|-4-4-4--|-4-4-4--|-4-4-4--|------7777-----------|
|-2-2-2--|-2-2-2--|-2-2-2--|---------------------|
|--------|--------|--------|---------------------|
|--------|--------|--------|---------------------|

I want to post or [tab]
guest
You may want to rate the tab now too:
select rating
Please do not post tabs as comments. Select "correction" instead!