Oops, an error
Loading. Please wait.

Dance Floor Anthem Tab

version 4
version 4

Whole song

Interactive

8,335 views 21 this week
3 commentsread comments
1 2 3 4 5
x 5
add to favorites
launch autoscroll
font size
0
reset
how to read this tab
guitar tuner
Autoscroll
slow
fast
+/-
esc
set tempo
stop
Help us to improve Ultimate-Guitar.com Take our survey!
×
Author
Difficulty
Tabbers playing skills
novice
intermediate +
Band: Good Charlotte
Song: I Don't Wanna Be In Love (Dance Floor Anthem)
Album: Good Morning Revival
Tabbed By: Crazylegs11 (matt.mcclintock.mcclintock@gmail.com)
----------------------------------------------------------------------------
Tuning: Standard
Notation: | /  slide up
          | \  slide down
          | h  hammer-on
          | p  pull-off
          | ~  vibrato
          | +  harmonic
          | x  Mute note
          | *  Let Note Hang
          | PM Palm Mute
----------------------------------------------------------------------------
Intro:

e|----------------------18181818------------------18181818-|
b|-------------------------------16161616-19191919---------|
g|-8-8-8--8-8-8--8-8-8-------------------------------------|
d|-8-8-8--8-8-8--8-8-8-------------------------------------|
a|-6-6-6--6-6-6--6-6-6-------------------------------------|
E|---------------------------------------------------------|

e|-----------------------------------|
b|-----------------------------------|
g|-4444444444444444/8888888888888888*|
d|-4444444444444444/8888888888888888*|
a|-2222222222222222/6666666666666666*|
E|-----------------------------------|

Verse:

e|--------------------------------------------------------------|
b|--------------------------------------------------------------|
g|--------------------------------------------------------------|
   PM----------------------------------------------------------
d|-8888888888888888\666666666666666/8888888888888888\666666666\-|
a|-6666666666666666\444444444444444/6666666666666666\444444444\-|
E|--------------------------------------------------------------|

Chorus:x4

e|-----------------------------------|
b|-----------------------------------|
g|-4444444444444444/8888888888888888-|
d|-4444444444444444/8888888888888888-|
a|-2222222222222222/6666666666666666-|
E|-----------------------------------|

After you play the chorus 4 times you play this once

e|-------|  *same as in the intro
b|-------|
g|-8-8-8-|
d|-8-8-8-|
a|-6-6-6-|
E|-------|

Verse:
Guitar 1
e|--------------------------------------------------------------------|
b|--------------------------------------------------------------------|
g|--------------------------------------------------------------------|
   PM----------------------------------------------------------------
d|-8888888888888888\666666666666666/8888888888888888\6666666666666666-|
a|-6666666666666666\444444444444444/6666666666666666\4444444444444444-|
E|--------------------------------------------------------------------|

e|---------------------------------------------------------------|
b|---------------------------------------------------------------|
g|---------------------------------------------------------------|
   PM------------------------------------------------------------|
d|-8888888888888888\6666666666666666/8888888888888888\666666666\-|
a|-6666666666666666\4444444444444444/6666666666666666\444444444\-|
E|---------------------------------------------------------------|
Guitar2 (Comes in 2nd half of the verse)
e|--------------------------------------|
b|--------------------------------------|
g|--------------------------------------|
d|-8-8-8--8\6-6-6--6/8-8-8--8\6-6-6--6\-|
a|-6-6-6--6\4-4-4--4/6-6-6--6\4-4-4--4\-|
E|--------------------------------------|

Chorus:x4

e|-----------------------------------|
b|-----------------------------------|
g|-4444444444444444/8888888888888888-|
d|-4444444444444444/8888888888888888-|
a|-2222222222222222/6666666666666666-|
E|-----------------------------------|

Bridge:x4

e|---------------------|
b|----------------9----|
g|-11-11-11--1111------|
d|-11-11-11--1111---11-|
a|-9--9--9---9-9-------|
E|---------------------|

Verse:

e|--------------------------------------------------------------------------|
b|--------------------------------------------------------------------------|
g|-----------------------------------------------------------------------6\-|
  PM------------------------------------------------------------------------|
d|88888888-4444-6666-88888888-4444-6666-88888888-4444-6666-88888888-4444-6\-|
a|-----------------------------------------------------------------------4\-|
E|--------------------------------------------------------------------------|

e|--------------------------------------|
b|--------------------------------------|
g|--------------------------------------|
d|-8-8-8--8\6-6-6--6/8-8-8--8\6-6-6--6\-|
a|-6-6-6--6\4-4-4--4/6-6-6--6\4-4-4--4\-|
E|--------------------------------------|

Chorus:x4

e|-----------------------------------|
b|-----------------------------------|
g|-4444444444444444/8888888888888888-|
d|-4444444444444444/8888888888888888-|
a|-2222222222222222/6666666666666666-|
E|-----------------------------------|

Outro:x4

e|---------------------|
b|----------------9----|
g|-11-11-11--1111------|
d|-11-11-11--1111---11-|
a|-9--9--9---9-9-------|
E|---------------------|

Ending:

e|--------------------|
b|--------------------|
g|-11111111111111111\-|
d|-11111111111111111\-|
a|-9-9-9-9-9-9-9-9-9\-|
E|--------------------|
Suggest correction
comments
print report bad tab
3 comments total.
0 reply
klutzy girl 10 Aug 13, 2009 10:31 PM

very NICE, haha! :)

0 reply
Noah1995 16 Jan 01, 2012 07:17 AM

This tab is GREAT! For people that don't know how to play harmonics or what they are, use this intro!

Great tab 5 stars!

0 reply
Fuse49 194 Aug 11, 2012 10:49 PM

Great tab! Sounds perfect to me.

guest
You may want to rate the tab now too:
select rating
Wanna post a correction for this tab? Suggest correction