Oops, an error
Loading. Please wait.

Festival Song bass

version 1
version 1

Whole song

Interactive

1,007 views 1 this week
3 commentsread comments
1 2 3 4 5
x 3
add to favorites
×
Save as Personal and add changes to this tab that will be seen only by you. Learn more ›
×
You can save this tab as Personal to edit and correct it or add notes. All changes will be seen only by you. Learn more »
launch autoscroll
font size
0
reset
guitar tuner
edit
Autoscroll
slow
fast
+/-
esc
set tempo
stop
Author
Band: Good Charlotte 
Song: The Festival Song
Album: Good Charlotte


Standard tuning
x = staccato note

Intro (No bass, it comes in after 2x of guitar)

Verse (x10)
G-----------------------------
D-----------------------------
A-5~--------------------------
E---------5-5-5--3--3-3-3-----

Pre-Chorus (x1)
G----------------------------
D----------------------------
A-55555555-------------------
E----------5555555555555555--

Chorus (x2)
G-----------------------------------------
D-----------------------------------------
A-55555555--------------------------------
E----------55555555-33333333-55555555-----

Verse (x10)

Pre-Chorus (x1)

Chorus (x2)

Bridge (x3) 
G-------------------------------------------------------
D-------------------------------------------------------
A-------------------------------------------------------
E-7x-7x-7x-7x-5x-5x-5x-5x-3x-3x-3x-3x-5x-5x-5x-5x-------

Then this x1
G------------------------------------------------
D------------------------------------------------
A------------------------------------------------
E-77777777-55555555-33333333-0000000000000000----

Chorus x1 with only guitar

Chorus (x4)

End
G-------------------------
D-------------------------
A-------------------------
E-7-7-5---7-7-5---7-7-3---

Really easy song, but its fun, so enjoy

            
            
Suggest correction
Creating personal tab
Creating personal tab
You can edit any tab online and save it as your Personal.

You can edit, replace or remove any tab part or add personal notes – all changes will be seen only by you.

Personal tabs can be accessed anytime from any device, even offline.
Learn more »
Give kudos to tab author, rate the tab!
1 2 3 4 5
comments
print report bad tab
3 comments total.
0 reply
182tomdelonge 70 May 25, 2003 08:00 PM

good tab u rock my world
ha

0 reply
imtehroxz0rz 10 Apr 10, 2004 08:00 PM

you're a homo

0 reply
buckethead101 130 Jan 27, 2005 07:00 PM

the outro has a minor problem and that is
|-------------------
|-------------------
|-------------------
|--7-7-5--7-7-5--7-7-3

it must be
|---------------------
|----------------------
|--3-0--3-0--3---------
|--------------3------

guest
You may want to rate the tab now too:
select rating
Wanna post a correction for this tab? Suggest correction