Oops, an error
Loading. Please wait.

Festival Song tab

version 2
version 2

Whole song

Interactive

1,455 views 6 this week
5 commentsread comments
1 2 3 4 5
x 3
add to favorites
×
Save as Personal and add changes to this tab that will be seen only by you. Learn more ›
×
You can save this tab as Personal to edit and correct it or add notes. All changes will be seen only by you. Learn more »
launch autoscroll
font size
0
reset
how to read this tab
guitar tuner
edit
Autoscroll
slow
fast
+/-
esc
set tempo
stop
Author
Festival Song – Good Charlotte

Intro:
e---3-3-3--2-2-2---------------
B---3-3-3--3-3-3---------------
G---2-2-2--2-2-2---------------
D-----------------7-7-7-5-5-5--
A-----------------7-7-7-5-5-5--   
E-----------------5-5-5-3-3-3--

Main Riff x7: verse 1           Fill 1
e----------------------         ---
B----------------------         ---
G--7-------------------         ---  x14?
D--7—3x--7-----5----7--         -7-
A--5-----7-3x--5—3x-7—- 3x      -7-
E--------5-----3----5--         -5-  

chorus:
|----------------------------------------------------------|
|----------------------------------------------------------|
|--7---------------------------7-------------4------7------|
|--7(x8)--7------5------7------7------7------4------7------|
|--5------7------5------7------5(x8)--7------2(x8)--5(x8)--|
|---------5(x8)--3(x8)--5(x8)---------5(x8)----------------|

Verse 2: play this after bass plays
                                 Fill 2
|-----------------------         |-------------|
|-----------------------         |-------------|
|--7--------------------         |--7----------|
|--7- 8x --7-7-7--5----- 4x      |--7—3x-7-----|
|--5-------7-7-7--5--5x-         |--5----7-12x-|
|----------5-5-5--3-----         |-------5-----|
  |        PM          |           |   PM     |

Bridge: your future.....       Bridge Fill 
|--------------------------|   |------------------------|
|--------------------------|   |------------------------|
|--4--4--4--4--------------|   |--4---------------------|
|--4--4--4--4--7--7--7--7--|   |--4------5------7-------|
|--2--2--2--2--7--7--7--7--|   |--2(x8)--5------7-------|
|--------------5--5--5--5--|   |---------3(x8)--5(x16)--|

then
-----                    
-----                    
--7--                    
--7--                    
--5--                    
----- ... PICK SLIDE
Suggest correction
Creating personal tab
Creating personal tab
You can edit any tab online and save it as your Personal.

You can edit, replace or remove any tab part or add personal notes – all changes will be seen only by you.

Personal tabs can be accessed anytime from any device, even offline.
Learn more »
Give kudos to tab author, rate the tab!
1 2 3 4 5
comments
print report bad tab
5 comments total. Showing first comments.
0 reply
driven2insanity 10 Jun 27, 2003 08:00 PM

good tab but you completely left out the ending...

0 reply
jriethman 50 Sep 07, 2003 08:00 PM

my bad....
u go... bridge fill... chorus (let cord ring, slide on the last xx775x) then the chorus (how played previously)
AND!! i realized i had the intro wrong... the intro is....

-----------------------
-----------------------
-7-7-7-7-7-7-----------
-7-7-7-7-7-7-7-7-5-5---
-5-5-5-5-5-5-7-7-5-5---
-------------5-5-3-3---

i had it figured out, i dont need the tab to play it so i didnt have it on there. hope ya like it now

0 reply
jriethman 50 Sep 07, 2003 08:00 PM

my bad....
u go... bridge fill... chorus (let cord ring, slide on the last xx775x) then the chorus (how played previously)
AND!! i realized i had the intro wrong... the intro is....

-----------------------
-----------------------
-7-7-7-7-7-7-----------
-7-7-7-7-7-7-7-7-5-5---
-5-5-5-5-5-5-7-7-5-5---
-------------5-5-3-3---

i had it figured out, i dont need the tab to play it so i didnt have it on there. hope ya like it now

guest
You may want to rate the tab now too:
select rating
Wanna post a correction for this tab? Suggest correction