Oops, an error
Loading. Please wait.

Festival Song Bass Tab

version 3
version 3

Whole song

Interactive

142 views 1 this week
no commentswrite comment
1 2 3 4 5
2 more votes to show rating
add to favorites
launch autoscroll
font size
0
reset
guitar tuner
Autoscroll
slow
fast
+/-
esc
set tempo
stop
Help us to improve Ultimate-Guitar.com Take our survey!
×
Author
Difficulty
Good Charlotte's Festival Song. This is pretty simple to play.  

  0:06
G |-------------------------------------|
D |-------------------------------------|
A |-555---------------------------------|
E |-----5--33---------------------------|  X9

  0:36
G |-------------------------------------|
D |-------------------------------------|
A |--555--------------------------------|
E |-----555555555555--------------------|

  Chorus 0:39
G |-------------------------------------|
D |-------------------------------------|
A |---555----------555------------------|
E |------555333555----555777885---------|

  0:52
G |-------------------------------------|
D |-------------------------------------|
A |-555---------------------------------|
E |-----5--33---------------------------| X9

  1:24
G |-------------------------------------|
D |-------------------------------------|
A |--555--------------------------------|
E |-----555555555555--------------------|

  Chorus 1:26
G |-------------------------------------|
D |-------------------------------------|
A |---555----------555------------------|
E |------555333555----555777885---------|

  1:39
G |-------------------------------------|
D |-------------------------------------|
A |-------------------------------------|
E |--7777-5555-3333-5555----------------| X4

  2:01
G |-------------------------------------|
D |-------------------------------------|
A |--5-------5--------------------------|
E |----5-3-5---5-77777777-88-5----------|

 Chorus 2:18
G |-------------------------------------|
D |-------------------------------------|
A |---555----------555------------------|
E |------555333555----555777885---------| X2

  2:44
G |-------------------------------------|
D |-------------------------------------|
A |-------------------------------------|
E |---885-885-883-----------------------|
Suggest correction
Give kudos to tab author, rate the tab!
1 2 3 4 5
comments
print report bad tab
guest
You may want to rate the tab now too:
select rating
Wanna post a correction for this tab? Suggest correction