Oops, an error
Loading. Please wait.

Keep Your Hands Off My Girl bass

version 1
version 1
22,177 views 12 this week
23 commentsread comments
1 2 3 4 5
x 16
add to favorites
×
Save as Personal and add changes to this tab that will be seen only by you. Learn more ›
×
You can save this tab as Personal to edit and correct it or add notes. All changes will be seen only by you. Learn more »
launch autoscroll
font size
0
reset
guitar tuner
edit
Autoscroll
slow
fast
+/-
esc
set tempo
stop
Author
Right, this is my first tab ever so it may come out bad, i also just figured this out by 
so it isnt perfect but sounds right when you play along to the song

Tuning: standard

Intro and verse:
G:----------------------:
D:----------------------:
A:-----------------555--: x10
E:--4--44--444-44-------:

pre-chorus:
G:---------------------:
D:---------------------:
A:----7-6--------------: x2
E:---4-4-444474--------:

Chorus:

G:----------------------------------------:
D:----------------------------------------:
A:----------------------77777---777777----: x3
E:--0000000022222222-444-----444----------:

G:-------------------------------------:
D:-------------------------------------:
A:------------------6666666666666666---:
E:--0000000022222222-------------------:

verse
G:----------------------:
D:----------------------:
A:-----------------555--: x4
E:--4--44--444-44-------:


pre-chorus:
G:---------------------:
D:---------------------:
A:----7-6--------------: x2
E:---4-4--444474-------:

Chorus:

G:----------------------------------------:
D:----------------------------------------:
A:----------------------77777---777777----: x3
E:--0000000022222222-444-----444----------:

G:-------------------------------------:
D:-------------------------------------:
A:------------------6666666666666666---:
E:--0000000022222222-------------------:

bridge thingy (yeah very pro of me)

G:-----------------------------------------------:
D:-----------------------------------------------:
A:----2-24666466646-----776644444444-------------:
E:---4-4------------0077-------------------------:

G:-----------------------------------------------:
D:-----------------------------------------------:
A:----2-24666466646-----776699977766-------------:
E:---4-4------------0077-------------------------:

G:-----------------------------------------------:
D:-----------------------------------------------:
A:----2-24666466646-----776644444444-------------:
E:---4-4------------0077-------------------------:

G:-----------------------------------------------:
D:-----------------------------------------------:
A:----2-24666466646-----776699999999799999999----:
E:---4-4------------0077-------------------------:

*pause*

-chorus-

end with:
G:----------------------:
D:----------------------:
A:-----------------555--: x3
E:--4--44--444-44-------:

Hope you like!!!
Suggest correction
Creating personal tab
Creating personal tab
You can edit any tab online and save it as your Personal.

You can edit, replace or remove any tab part or add personal notes – all changes will be seen only by you.

Personal tabs can be accessed anytime from any device, even offline.
Learn more »
comments
print report bad tab
23 comments total. Showing first comments.
0 reply
UGROQFAN 122 Nov 02, 2006 03:12 PM

cool tab

0 reply
alucardmik 10 Jan 25, 2007 01:59 AM

ver nice and well done, good work

0 reply
MuDvAyNe_rOcKs 10 Jan 26, 2007 07:57 PM

great tab. cool song too. thanks alot. :) 5*

guest
You may want to rate the tab now too:
select rating
Wanna post a correction for this tab? Suggest correction