Oops, an error
Loading. Please wait.

Keep Your Hands Off My Girl Tab

version 1
version 1
3,837 views 15 this week
5 commentsread comments
1 2 3 4 5
x 12
add to favorites
×
Save as Personal and add changes to this tab that will be seen only by you. Learn more ›
launch autoscroll
font size
0
reset
how to read this tab
guitar tuner
Autoscroll
slow
fast
+/-
esc
set tempo
stop
Author
Tuning
D A D G B E
Tabbed by: Luke_531
Tuning: dropped D
This song is definitely in drop D (or maybe a varient of it due to the tunings on their 
albums(half step then d))because in the video clip at 2:22 or near the end of the break 
can see that billy does the riff practically identically to the one that’s tabbed.

Intro (the intro is done on bass but if you have a octave pedal
Play this riff with distortion like 8 octaves down and it sounds sweet)
|------------------------------------------------------|
|------------------------------------------------------|
|------------------------------------------------------|
|------------------------------------------------------|
|------------------------555---------------------------|
|----6-66-6--66--6-6-6---------------------------------|


prechorus
|------------------------------------------------------|
|------------------------------------------------------|
|------------------------------------------------------|
|----9------8------------------------------------------|
|-6--7--6---6--6--6--666--9----6-----------------------|
|-6-----6------6--6--666--9----6-----------------------|

chorus
|------------------------------------------------------------|
|------------------------------------------------------------|
|------------------------------------------------------------|
|------------------------------------------------------------|
|-22222222-44444444-666-777777-666-777777--------------------|
|-22222222-44444444-666--------666---------------------------|

|------------------------------------------------------|
|------------------------------------------------------|
|------------------------------------------------------|
|------------------------------------------------------|
|-22222222-44444444-0-11111111111111111----------------|
|-22222222-44444444-0-11111111111111111----------------|


verse(intro)
prechorus
chorus

Breakdown           billy plays this lot twice
|---------------------------------------------------|
|----------------------------------------------------|
|----------------------------------------------------|
|-----------------7-88878887--------99-88-66666666---|
|-6-6--9--6-6---9-5-66656665-2222---77-66-44444444---|
|-6-6--9--6-6---9------------2222--------------------|

|---------------------------------------------------|
|---------------------------------------------------|
|---------------------------------------------------|
|----------------7-88878887--------99-88—-11(8----)--|
|-6-6--9--6-6--9-5-66656665-2222---77-66--9-(times)--|
|-6-6--9--6-6--9------------2222---------------------|

Benji plays
|------------------------------------------------------|
|------------------------------------------------------|
|--13---12---13------8------13--12--13--15-------------|
|------------------------------------------------------|
|--11---10---11------6------11--10--11--13-------------|
|------------------------------------------------------|
 im too lazy to write how many times you play it just listen to the song
 and follow the progression

intro(verse) (drums and vocals only)
chorus
intro(verse)
Suggest correction
comments
print report bad tab
5 comments total. Showing first comments.
0 reply
hardver 10 Mar 06, 2007 01:17 PM

ie

0 reply
FidoFletch 52 Mar 11, 2007 03:56 AM

Are you sure that this is in Drop D?

0 reply
mikey 007 10 Mar 28, 2007 05:01 AM

mmmmmmmmm? drop d u sure m8?

guest
You may want to rate the tab now too:
select rating
Wanna post a correction for this tab? Suggest correction