Oops, an error
Loading. Please wait.

Keep Your Hands Off My Girl bass

version 2
version 2
1,972 views 1 this week
2 commentsread comments
1 2 3 4 5
1 last vote to show rating
add to favorites
×
Save as Personal and add changes to this tab that will be seen only by you. Learn more ›
×
You can save this tab as Personal to edit and correct it or add notes. All changes will be seen only by you. Learn more »
launch autoscroll
font size
0
reset
guitar tuner
edit
Autoscroll
slow
fast
+/-
esc
set tempo
stop
Author
Difficulty
Sorry guys i forgot to said in the guitartab (3version) that the intro is in a bass so 
intro is right but play it with a bass.

INTRO
|--------------------------|
|--------------------------|
|-------------555----------| x10
|---5-55-5555--------------|

(CHORUS)

|--------------------------|
|--------------------------|
|--------------------------| x2
|--5-5-5-5-555-7-55--------|


|-----------------------------|
|-----------------------------|
|-----------------------------| X3
|-22222222-44444444-5555-5555-|

|-------------------------------------|
|-------------------------------------|
|-------------------------------------|
|-22222222-44444444-11111111-11111111-|

INTRO

|--------------------------|
|--------------------------|
|-------------555----------| x5
|---5-55-5555--------------|

|--------------------------|
|--------------------------|
|--------------------------| x2
|--5-5-5-5-555-7-55--------|

(CHORUS)

|-----------------------------|
|-----------------------------|
|-----------------------------| X3
|-22222222-44444444-5555-5555-|

|----------------------------|
|----------------------------|
|----------------------------|
|-22222222-44444444-11111111-|

BREAKDOWN

|-----------------------------|
|---66666666-44444444-6666----|
|-----------------------------| x8
|-----------------------------|

(CHORUS)

|-----------------------------|
|-----------------------------|
|-----------------------------| X3
|-22222222-44444444-5555-5555-|

|----------------------------|
|----------------------------|
|----------------------------|
|-22222222-44444444-11111111-|

INTRO
|--------------------------|
|--------------------------|
|-------------555----------| x2
|---5-55-5555--------------|

AND ENDS WITH VOCALS

SO I NEED TO TELL YOU AGAIN I´M SORRY ABOUT THE INTRO GUITAR BUT BASICLY IS THE SAME

JESUSSUBURBIA@HOTMAIL.COM

            
            
Suggest correction
Creating personal tab
Creating personal tab
You can edit any tab online and save it as your Personal.

You can edit, replace or remove any tab part or add personal notes – all changes will be seen only by you.

Personal tabs can be accessed anytime from any device, even offline.
Learn more »
Give kudos to tab author, rate the tab!
1 2 3 4 5
comments
print report bad tab
2 comments total.
0 reply
arkantos 155 Feb 23, 2007 03:11 PM

NOTE: GUYS LIKE I SAID THIS IS THE RIGHT BREAKDOWN

|----------------------|
|----------------------|
|--4444-6666-2222-0000-| X 8
|----------------------|

0 reply
lilwelshrocker 324 May 22, 2007 09:07 AM

very good tab mate. i think that u missed out a slide up somewhere in the song as you can hear one during the bridge. apart from that, very accurate tab.

guest
You may want to rate the tab now too:
select rating
Wanna post a correction for this tab? Suggest correction