Oops, an error
Loading. Please wait.

Keep Your Hands Off My Girl tab

version 2
version 2
1,976 views 3 this week
3 commentsread comments
1 2 3 4 5
x 5
add to favorites
×
Save as Personal and add changes to this tab that will be seen only by you. Learn more ›
×
You can save this tab as Personal to edit and correct it or add notes. All changes will be seen only by you. Learn more »
launch autoscroll
font size
0
reset
how to read this tab
guitar tuner
edit
Autoscroll
slow
fast
+/-
esc
set tempo
stop
Author
Difficulty
INTRO
|--------------------------|
|--------------------------|
|--------------------------|
|--------------------------|
|-------------555----------| x10
|---5-55-5555--------------|

I got a model... (CHORUS)
|--------------------------|
|--------------------------|
|--------------------------|
|--------------------------|
|--5-7-5-6-555-7-55--------| x2
|--5-5-5-5-555-7-55--------|

And the record keeps playing... (CHORUS)

|-----------------------------|
|-----------------------------|
|-----------------------------|
|-----------------------------|
|-22222222-44444444-5557-5557-| X3
|-22222222-44444444-5555-5555-|

AND THE 4º TIME OF CHORUS ENDS WITH THIS...

|-------------------------------------|
|-------------------------------------|
|-------------------------------------|
|-------------------------------------|
|-22222222-44444444-11111111-11111111-|
|-22222222-44444444-11111111-11111111-|


INTRO
|--------------------------|
|--------------------------|
|--------------------------|
|--------------------------|
|-------------555----------| x5
|---5-55-5555--------------|

Now she’s sweating my...

|--------------------------|
|--------------------------|
|--------------------------|
|--------------------------|
|--5-7-5-6-555-7-55--------| x2
|--5-5-5-5-555-7-55--------|

And the record keeps playing... (CHORUS)

|-----------------------------|
|-----------------------------|
|-----------------------------|
|-----------------------------|
|-22222222-44444444-5557-5557-| X3
|-22222222-44444444-5555-5555-|

AND THE 4º TIME OF CHORUS ENDS WITH THIS...

|----------------------------|
|----------------------------|
|----------------------------|
|----------------------------|
|-22222222-44444444-11111111-|
|-22222222-44444444-11111111-|

IN THE BREAK DOWN I`M NOT SURE ABOUT THE GUITAR 1 (And this part play a lot to get the 
y played like this and sounds good)

|-----------------------------|
|----13-12-13-8-13-12-13-15---|
|-----------------------------|
|-----------------------------|
|-----------------------------| x2
|-----------------------------|
And the record keeps playing... (CHORUS)

|-----------------------------|
|-----------------------------|
|-----------------------------|
|-----------------------------|
|-22222222-44444444-5557-5557-| X3
|-22222222-44444444-5555-5555-|

AND THE 4º TIME OF CHORUS ENDS WITH THIS...

|----------------------------|
|----------------------------|
|----------------------------|
|----------------------------|
|-22222222-44444444-11111111-|
|-22222222-44444444-11111111-|

INTRO
|--------------------------|
|--------------------------|
|--------------------------|
|--------------------------|
|-------------555----------| x2
|---5-55-5555--------------|

AND ENDS WITH VOCALS


THIS TAB IS BASED WITH THE luke_531 EXAMPLE SO HAS SOME DIFFERENT PARTS AND HOPE SOUNDS 
GOOD SO ENJOY IT

JESUSSUBURBIA@HOTMAIL.COM

            
            
Suggest correction
Creating personal tab
Creating personal tab
You can edit any tab online and save it as your Personal.

You can edit, replace or remove any tab part or add personal notes – all changes will be seen only by you.

Personal tabs can be accessed anytime from any device, even offline.
Learn more »
comments
print report bad tab
3 comments total.
0 reply
arkantos 155 Feb 23, 2007 03:09 PM

NOTE: GUYS I FOUND THE RIGHT FOR BREAKDOWN AND I GUESS YOU THINK SO.

|----------------------|
|----------------------|
|----------------------|
|--6666-8888-4444-2222-|
|--4444-6666-2222-0000-| X 8
|----------------------|

SO GAYS THANKS FOR VOTE HERE

0 reply
neoamir 1,063 Mar 06, 2007 03:23 AM

this tab is L.A.M.E. i can't tell another thing dude

0 reply
Oli13Bishop 117 Jul 07, 2007 07:46 AM

apart from the breakdown i think its pretty spot on
what is going on with that high breakdown part with the 12's and 13's?

guest
You may want to rate the tab now too:
select rating
Wanna post a correction for this tab? Suggest correction