Oops, an error
Loading. Please wait.

Keep Your Hands Off My Girl bass

version 5
version 5
1,236 views 1 this week
no commentswrite comment
1 2 3 4 5
3 more votes to show rating
add to favorites
×
Save as Personal and add changes to this tab that will be seen only by you. Learn more ›
×
You can save this tab as Personal to edit and correct it or add notes. All changes will be seen only by you. Learn more »
launch autoscroll
font size
0
reset
guitar tuner
edit
Autoscroll
slow
fast
+/-
esc
set tempo
stop
TITLE:       keep your hands off my girl
ARTIST:      good charlotte
ALBUM:       good morning revival
TABBED BY:   silentrocker21
E-MAIL:      lorenz10_15@yahoo.com



juzt follow the strumming pattern the way GC play it... i also included the lyrics of the song...
hope you pipol like this, juzt add me in friendster/myspace... thankz...\m/
rokczterz rockz...\m/


intro:
G|----------------------------------|
D|----------------------------------|
A|-------------------------5-5-5----|
E|----4---4-4---4-4-4-4-4-----------|


verse: (repeat this for the entire verse...)
G|----------------------------------|
D|----------------------------------|
A|-------------------------5-5-5----|
E|----4---4-4---4-4-4-4-4-----------|
  Let the record play,
  Let the record play,
  Let the record play.

  The way that you dance,
  The way that you move,
  The way that you stare at me across the room,
  You carry Dior bags,
  And you got your Chanel,
  You wear Louis Vuitton, HG, and YSL,
  Now I got what you need,
  I got DCMA
  I got brass knuckles hanging,
  From my neck in my chain,


pre-chorus:
G|-----------------------------------|
D|-----------------------------------|
A|------7-----6----------------------|
E|----4-----4-----4-4----4-4-4-7-4---|
  I got a model 26,
  But she stays in her place,
  I got a curve shirt neatly,
  Tucked inside in my waist.


chorus:
G|------------------------------------------------------|
D|------------------------------------------------------|
A|----------------------------------------7--------7----|
E|----0-0-0-0-0-0-0-0-2-2-2-2-2-2-2-2-4--------4--------|
  And the record keeps playing,
  The same old song,
  The hipster's keeps mugging on me all night long,
  They say "Aha, ahha",
  Keep your hands off my girl,
  Keep your hands off my girl,
  They say "Aha, ahha",
  But the record keeps playing,
  The same old song,

G|-------------------------------------------------------------------|
D|-------------------------------------------------------------------|
A|----------------------------------6-6-6-6-6-6-6---6-6-6-6-6-6-6-6--|
E|--0-0-0-0-0-0-0-0-2-2-2-2-2-2-2-2---------------6------------------|
  They say "Aha, ahha",
  Keep your hands off my girl,
  Keep your hands off my girl.


verse: (do this for the entire verse...)
G|----------------------------------|
D|----------------------------------|
A|-------------------------5-5-5----|
E|----4---4-4---4-4-4-4-4-----------|
  Now she sweating my friends,
  And my hurricane shoes,
  She likes the records I spin,
  But out Adam Barton tattoos,
  But she can't say "what's up",
  So what does she do,
  She just stays posted up,
  The other side of the room,


pre-chorus:
G|-----------------------------------|
D|-----------------------------------|
A|------7-----6----------------------|
E|----4-----4-----4-4----4-4-4-7-4---|
  I got AMC tattooed on my hand,
  I got black wall street on a black bandana.


chorus:
G|------------------------------------------------------|
D|------------------------------------------------------|
A|----------------------------------------7--------7----|
E|----0-0-0-0-0-0-0-0-2-2-2-2-2-2-2-2-4--------4--------|
  And the record keeps playing,
  The same old song,
  The hipster keeps mugging on me all night long,
  They say "Aha, ahha",
  Keep your hands off my girl,
  Keep your hands off my girl,
  They say "Aha, ahha",
  But the record keeps playing,
  The same old song,
  
G|-------------------------------------------------------------------|
D|-------------------------------------------------------------------|
A|----------------------------------6-6-6-6-6-6-6---6-6-6-6-6-6-6-6--|
E|--0-0-0-0-0-0-0-0-2-2-2-2-2-2-2-2---------------6------------------|
  They say "Aha, ahha",
  Keep your hands off my girl,
  Keep your hands off my girl.


bride:
G|------------------------------------------------------------------|
D|------------------------------------------------------------------|
A|--------------4-6-6-4-6-7-6-4-6-7-7-7-7-7-7-7-6-4-4-4-4-4-4-4-4---|
E|---4-4-7-4--4-----------------------------------------------------|
  She, she, she don't wanna talk about it,
  He, he, he wants to fight about,

G|------------------------------------------------------------------|
D|------------------------------------------------4-4-4-4-4-4-4-4---|
A|--------------4-6-6-4-6-7-6-4-6-7-7-7-7-7-7-7-7-------------------|
E|---4-4-7-4--4-----------------------------------------------------|
  Me, me, I don't wanna fight about it,
  I just wanna be about it,
  I'm just trying to stay about it,

G|------------------------------------------------------------------|
D|------------------------------------------------------------------|
A|--------------4-6-6-4-6-7-6-4-6-7-7-7-7-7-7-7-6-4-4-4-4-4-4-4-4---|
E|---4-4-7-4--4-----------------------------------------------------|
  Step out the wagon,
  You know the boy starts to hate,
  The girl that came with him,
  They like that's not the boy she dates,

G|------------------------------------------------------------------|
D|------------------------------------------------4-4-4-4-4-4-4-4---|
A|--------------4-6-6-4-6-7-6-4-6-7-7-7-7-7-7-7-7-------------------|
E|---4-4-7-4--4-----------------------------------------------------|
  They get the fighting and swearing,
  And now the boyfriend is staring,
  The disco ball on the ceiling,
  Looks like the chain that I'm wearing,
  But the music keeps playing,

  
  I got brass knuckles hanging,
  from my neck in my chain,
  I got brass knuckles hanging,
  from my neck in my chain.


Repeat Chorus


Verse:
G|----------------------------------|
D|----------------------------------|
A|-------------------------5-5-5----|
E|----4---4-4---4-4-4-4-4-----------|
  You carry Dior bags,
  And you got your Chanel,
  You wear Louis Vuitton, HG, and YSL,
  Now I got what you need,
  I got DCMA,

  I got brass knuckles hanging,
  From my neck in my chain,
  I got brass knuckles hanging,
  From my neck in my chain.

            
            
Suggest correction
Creating personal tab
Creating personal tab
You can edit any tab online and save it as your Personal.

You can edit, replace or remove any tab part or add personal notes – all changes will be seen only by you.

Personal tabs can be accessed anytime from any device, even offline.
Learn more »
Give kudos to tab author, rate the tab!
1 2 3 4 5
comments
print report bad tab
guest
You may want to rate the tab now too:
select rating
Wanna post a correction for this tab? Suggest correction