Oops, an error
Loading. Please wait.

Lifestyles Of The Rich And Famous tab

version 6
version 6

Interactive

638 views 1 this week
4 commentsread comments
1 2 3 4 5
x 5
add to favorites
×
Save as Personal and add changes to this tab that will be seen only by you. Learn more ›
×
You can save this tab as Personal to edit and correct it or add notes. All changes will be seen only by you. Learn more »
launch autoscroll
font size
0
reset
how to read this tab
guitar tuner
backing track
0:00
0:00
edit
Autoscroll
slow
fast
+/-
esc
set tempo
stop
Author
This is the first tab I've posted, but I have tabbed before.  I could only find one tab for this
song and it sucked, so I figured I'd give it a try.  I think it's pretty good.
Feel free to mail me anything you want at dane_mchenry@hotmail.com

This song is tuned down 1/2 step and it's in drop D. 

Riff 1
|------------------------------------|
|------------------------------------|
|-77--------99------------------77---|
|-77--------99--------55--------77---|
|-55--------77--------55--------55---|
|---------------------55-------------|

Riff 2
|-------------------------------------|---------|
|-------------------------------------|---------|
|-44444444----------77777777-99999999-|77777777-|
|-44444444-55555555-77777777-99999999-|77777777-|
|-22222222-55555555-55555555-77777777-|55555555-|
|----------55555555-------------------|---------|

Riff 3
|-------------------------------------|
|-------------------------------------|
|-------------------------------------|
|-00000000-22222222-55555555-00000000-|
|-00000000-22222222-55555555-00000000-|
|-00000000-22222222-55555555-00000000-|

Interlude
|-------|
|-------|
|-------|
|-------|
|-------|
|---0---|
Just keep hitting that note alot.

Riff 4
|-------------------|
|-------------------|
|-------------------|
|----------77777777-|
|-55555555-77777777-|
|-55555555-55555555-|
|-55555555----------|

Order:

Riff1 x 2
Riff2 x 2
Riff3 x 2
Riff1 x 2
Riff2 x 2
Riff3 x 2
Interlude
Riff3 x 3
Riff4 x 3

            
            
Suggest correction
Creating personal tab
Creating personal tab
You can edit any tab online and save it as your Personal.

You can edit, replace or remove any tab part or add personal notes – all changes will be seen only by you.

Personal tabs can be accessed anytime from any device, even offline.
Learn more »
comments
print report bad tab
4 comments total. Showing first comments.
0 reply
boxcarracerl337 10 Dec 02, 2002 07:00 PM

Riff 1
Riff 1
|------------------------------------|
|------------------------------------|
|-77----------------------------77---|
|-77--------22--------55--------77---|
|-55--------22--------55--------55---|
|-----------22--------55-------------|


riff 2
|--------------------------------------|
|--------------------------------------|
|-44444444-------------------22222222--|
|-44444444-55555555-00000000-22222222--|
|-22222222-55555555-00000000-00000000--|
|----------55555555-00000000-----------|

0 reply
g_benji_c 10 Dec 23, 2002 07:00 PM

on riff 2
it's
--------
--------
--------
7777777
7777777
7777777
that's all

0 reply
atarimar182 40 Dec 25, 2002 07:00 PM

this one is wrong too

guest
You may want to rate the tab now too:
select rating
Wanna post a correction for this tab? Suggest correction