Oops, an error
Loading. Please wait.

Lifestyles Of The Rich And The Famous Tab

version 1
version 1

Whole song

Interactive

412 views 1 this week
1 commentread comment
1 2 3 4 5
please rate
add to favorites
launch autoscroll
font size
0
reset
how to read this tab
guitar tuner
Autoscroll
slow
fast
+/-
esc
set tempo
stop
Help us to improve Ultimate-Guitar.com Take our survey!
×
Lifestyles Of The Rich And Famous-Good Charlottle
Young And Hopeless

gtr. 1,3 &4:
Drop Db:
Db Ab Db Gb Bb Eb

gtr. 2:
Eb Ab Db Gb Bb Eb

Intro: Drums then
w/ pitch shifter

e-0---------------------------------------------------------------
b-3---------------------------------------------------------------
g-2---------------------------------------------------------------
d-0---------------------------------------------------------------
a-0---------------------------------------------------------------
d-0---------------------------------------------------------------

1st Verse:

Fig. 1

e-----------------------------------------------------------------
b-3----3--------------------------5----5--------------------------
g-2----2--------------------------4----4--------------------------
d-0----0--------------------------2----2--------------------------
a-0----0--------------------------2----2--------------------------
d-0----0--------------------------2----2--------------------------

e-----------------------------------------------------------------
b-8----8--------------------------3----3--------------------------
g-7----7--------------------------2----2--------------------------
d-5----5--------------------------0----0--------------------------
a-5----5--------------------------0----0--------------------------
d-5----5--------------------------0----0--------------------------

Pre Chorus:

gtr. 2

e-----------------------------------------------------------------
b-3-------------3----------------------------------3--------------
g-4--4---4-----------4---------------------4---------------4------
d-4--4-------4-----------4---x---5----5--------------------5------
a-2--2-----------------------x---5----5---------5--------------5--
e--------------------------------3----3---------3------3-------5--

gtr. 1

e-----------------------------------------------------------------
b-----------------------------------------------------------------
g-----------------------------------------------------------------
d-9------9---9--9----9---9---9---5----5----5----5--5---5---5---5--
a-9------9---9--9----9---9---9---5----5----5----5--5---5---5---5--
d-9------9---9--9----9---9---9---5----5----5----5--5---5---5---5--

gtr. 2

e-----------------------------------------------------------------
b-----------------------------------------------------------------
g---------------7----------------------------------6--------------
d-7------7---------------7---5---7----7----7----7------7-7-7---7--
a-5----------5-------5-----------7----7----7----7------7-7-7---7--
e-5------------------5-----------5----5----5----5------5-5-5---5--

gtr. 1

e-----------------------------------------------------------------
b-----------------------------------------------------------------
g-----------------------------------------------------------------
d-0------0---0--0----0---0---0---7----7----7----7--7---7---7---7--
a-0------0---0--0----0---0---0---7----7----7----7--7---7---7---7--
e-0------0---0--0----0---0---0---7----7----7----7--7---7---7---7--

gtr. 2

e-----------------------------------------------------------------
b-3-------------3----------------------------------3--------------
g-4--4---4-----------4---------------------4---------------4------
d-4--4-------4-----------4---x---5----5--------------------5------
a-2--2-----------------------x---5----5---------5--------------5--
e--------------------------------3----3---------3------3-------5--

gtr. 1

e-----------------------------------------------------------------
b-----------------------------------------------------------------
g-----------------------------------------------------------------
d-9------9---9--9----9---9---9---5----5----5----5--5---5---5---5--
a-9------9---9--9----9---9---9---5----5----5----5--5---5---5---5--
d-9------9---9--9----9---9---9---5----5----5----5--5---5---5---5--

gtr. 2

e-----------------------------------------------------------------
b--------------------------------------------------5--------------
g---------------7-------------------------------------------------
d-7------7---------------7---5---7----7----7----7------7-7-7---7--
a-5----------5-------5-----------7----7----7----7------7-7-7---7--
e-5------------------5-----------5----5----5----5------5-5-5---5--

gtr. 1

e-----------------------------------------------------------------
b-----------------------------------------------------------------
g-----------------------------------------------------------------
d-0------0---0--0----0---0---0---7----7----7----7--7---7---7---7--
a-0------0---0--0----0---0---0---7----7----7----7--7---7---7---7--
e-0------0---0--0----0---0---0---7----7----7----7--7---7---7---7--

Fig. 3

gtr. 2

e-----------------------------------------------------------------
b-----------------------------------------------------------------
g------------------4----------------------------------------------
d-5----5----5----------------5------------------------------------
a-5----5--------5-------------------------------------------------
e-3----3--------------3--3--------3-------------------------------

gtr. 1

e-----------------------------------------------------------------
b-----------------------------------------------------------------
g-----------------------------------------------------------------
d-5------5---5--5----5---5---5----5--5--5-------------------------
a-5------5---5--5----5---5---5----5--5--5-------------------------
d-5------5---5--5----5---5---5----5--5--5-------------------------

Chorus:

gtr. 2

e-2---2---2---2---2---2---2---2--0---0---0---0---0---0---0---0----
b-3---3---3---3---3---3---3---3--0---0---0---0---0---0---0---0----
g-2---2---2---2---2---2---2---2--1---1---1---1---1---1---1---1----
d-0---0---0---0---0---0---0---0--2---2---2---2---2---2---2---2----
a-0---0---0---0---0---0---0---0--2---2---2---2---2---2---2---2----
e--------------------------------0---0---0---0---0---0---0---0----

gtr. 1

e-----------------------------------------------------------------
b-3---3---3---3---3---3---3--3---5---5---5---5---5---5---5---5--5-
g-2---2---2---2---2---2---2--2---4---4---4---4---4---4---4---4--4-
d-0---0---0---0---0---0---0--0---2---2---2---2---2---2---2---2--2-
a-0---0---0---0---0---0---0--0---2---2---2---2---2---2---2---2--2-
d-0---0---0---0---0---0---0--0---2---2---2---2---2---2---2---2--2-

gtr. 2

e-3---3---3---3-3-3---3---3------2---2---2---2---2---2---2---2----
b-3---3---3---3-3-3---3---3------3---3---3---3---3---3---3---3----
g-0---0---0---0-0-0---0---0------2---2---2---2---2---2---2---2----
d-0---0---0---0-0-0---0---0------0---0---0---0---0---0---0---0----
a-x---x---x---x-x-x---x---x------0---0---0---0---0---0---0---0----
e-3---3---3---3-3-3---3---3---------------------------------------

gtr 1.

e-----------------------------------------------------------------
b-8---8---8---8---8---8---8--8-8-3---3---3---3---3---3---3---3----
g-7---7---7---7---7---7---7--7-7-2---2---2---2---2---2---2---2----
d-5---5---5---5---5---5---5--5-5-0---0---0---0---0---0---0---0----
a-5---5---5---5---5---5---5--5-5-0---0---0---0---0---0---0---0----
d-5---5---5---5---5---5---5--5-5-0---0---0---0---0---0---0---0----

2nd Verse: w/ Fig. 1

then

e-----------------------------------------------------------------------------
b-----------------------------------------------------------------------------
g-----14------14------14---------14-14------13------13------13----------13-13-
d-12------12------12-----12---12--------12------12------12------12---12-------
a-----------------------------------------------------------------------------
d-----------------------------------------------------------------------------

e-----------------------------------------------------------------------------
b-----------------------------------------------15--------------15------------
g-----12------12------12---------12-12------14----------14--------------------
d-12------12------12-----12---12--------12----------12------12-------12-------
a-----------------------------------------------------------------------------
d-----------------------------------------------------------------------------

Pre Chorus: same as before w/ Bass #2

Bass:

x2
g-----------------------------------------------------------------
d-----------------------------------------------------------------
a-2----2---2---2---2---2--0---------------------------------------
e----------------------------3---------3-------3-----3----3----3--

g-----------------------------------------------------------------
d-----------------------------------------------------------------
a-5----5---5---5---5---5-----0----0----4----0----5----4----2----0-
e-----------------------------------------------------------------

then

g-----------------------------------------------------------------
d-----------------------------------------------------------------
a-----------------------------------------------------------------
e-3---3---3--3----3---3-----3--3----3-3----3-3-----3-3----3----3--

Interlude:

x5, pm
e-----------------------------------------
b-----------------------------------------
g-----------------------------------------
d-----------------------------------------
a-----------------------------------------
d-0-------12--0--0--0----0--0--12--0------

Riff A: Bass #2

g------------------------------------------------------
d------------------------------------------------------
a-5-5---5-5---5-5---5-5---0---3---5-5---5-5---5-5------
e------------------------------------------------------

g------------------------------------------------------
d------------------------------------------------------
a-5-5---5-5---5-5---5-5---0---3---5--------------------
e------------------------------------------------------

Outro: x2

gtr. 2

e-3--3--3--3--3--3--3--3----2--2--2--2--2--2--2--2-
b-3--3--3--3--3--3--3--3----3--3--3--3--3--3--3--3-
g-0--0--0--0--0--0--0--0----2--2--2--2--2--2--2--2-
d-0--0--0--0--0--0--0--0----0--0--0--0--0--0--0--0-
a-x--x--x--x--x--x--x--x----0--0--0--0--0--0--0--0-
e-3--3--3--3--3--3--3--3---------------------------

gtr. 1

e--------------------------------------------------
b-8--8--8--8--8--8--8--8----3--3--3--3--3--3--3----
g-7--7--7--7--7--7--7--7----2--2--2--2--2--2--2----
d-5--5--5--5--5--5--5--5----0--0--0--0--0--0--0----
a-5--5--5--5--5--5--5--5-0--0--0--0--0--0--0--0/5--
d-5--5--5--5--5--5--5--5-0--0--0--0--0--0--0--0/5--

then

gtr. 2

e-2---2---2---2---2---2---2---2---2---2---2---2---2---------------
b-3---3---3---3---3---3---3---3---3---3---3---3---3---------------
g-2---2---2---2---2---2---2---2---2---2---2---2---2---------------
d-0---0---0---0---0---0---0---0---0---0---0---0---0---------------
a-0---0---0---0---0---0---0---0---0---0---0---0---0---------------
e-----------------------------------------------------------------

gtr. 1

e-----------------------------------------------------------------
b-3---3---3---3---3---3---3---3---3---3---3---3---3---------------
g-2---2---2---2---2---2---2---2---2---2---2---2---2---------------
d-0---0---0---0---0---0---0---0---0---0---0---0---0---------------
a-0---0---0---0---0---0---0---0---0---0---0---0---0---------------
e-0---0---0---0---0---0---0---0---0---0---0---0---0---------------


that’s all

trevor jones
timmy91199@yahoo.ca======

Good Charlotte - Lifestyles of The Rich and The Famous

I spent countless hours listen to this song on my headphones to hear each
detail.....and watching the trl and conan obrien preformences over and over
to get this right. I havent figured out the part where on trl he yelled the
shout outs for those bands...but i do know billy is doing some pik scrapes and
benji is piking something i just didnt get it down and also theres one other
part that billy plays i havent figured out yet either but when i do ill post
it. Let me know what u think sk8r28sla@cs.com 

drop D tunning

intro 
turn the volume down and striked the strings and turn the volume up
----|
----|
-5--|
-5--|
-3--|
----|

-------------------------------------------|
-------------------------------------------|
-77-------77-------------------------------|
-77-22-55-77-------------------------------|
-55-22-55-55-------------------------------|
----22-55----------------------------------|
let the end ring on the 2nd time

verse 1
-------------------------------------------|
-------------------------------------------|
-77777777----------------------------------|
-77777777-22222222-55555555-55555555-------|
-55555555-22222222-55555555-55555555-------|
----------22222222-55555555-55555555-------|

verse 2
-------------------------------------------|
-------------------------------------------|
-------------------77777777----------------|
-22222222-55555555-77777777-22222222-------|
-22222222-55555555-55555555-22222222-------|
-22222222-55555555----------22222222-------|

interlude
-------------------------------------------|
-------------------------------------------|
-------------------------------------------|
-------------------------------------------|
-------------------------------------------|
-55-55-55-55-55----------------------------|

verse 3
-------------------------------------------|
-------------------------------------------|
-------------------------------------------|
-000000-222222-555555-000000---------------|
-000000-222222-555555-000000---------------|
-000000-222222-555555-000000---------------|

verse 4
-------------------------------------------|
-------------------------------------------|
-------------------------------------------|
-22222222-55555555-------------------------|
-22222222-55555555-------------------------|
-22222222-55555555-------------------------|

intro: 2x
verse 1: 2x
verse 2: 2x
intro: 2x
verse 1: 2x
interlude
verse 2: 2x
verse 3: 2x
verse 4: 3x     


===


Good Charlotte - Lifestyles of The Rich and The Famous
tabbed by brendan

hey i decided to tab this song cos its so friggin good and there were
no tabs on ultimate guitar so here it is. play with heavy distortion.
i'm not sure if its all correct but its sounds pretty close.

drop d tuning

First riff
e------------------------------------------|
B------------------------------------------|
G--7-7--------9-9--------12-12--------7-7--|
D--7-7--------9-9--------12-12--------7-7--|
A--5-5--------7-7--------10-10--------5-5--|
D------------------------------------------|

Second riff
e------------------------------------------------------------|
B------------------------------------------------------------|
G------------------------------------------------------------|
D-------11-------------11-------------11-------------9-------|
A-----9-----12-9-----9-----12-9--5--9-----12-9-----7---------|
D--9--------------5-----------------------------7-------7-5--|
                                                   ^ ^
the second time round there is a variation on this 7&9
instead, the 7 on A becomes 9 on D, and 9 on D becomes 11 on G.

'fall...' 0:45, after the second play of the second riff.
e----------------|
B----------------|
G----------------|
D-------9--------|
A-----7----10-7--|
D--7-------------|


chorus riff - play each one 8x, evenly spaced..
e--------------------|
B--------------------|
G--------------------|
D--0----2----5----0--|
A--0----2----5----0--|
D--0----2----5----0--|


little interlude bit
e-------------------------------|
B-------------------------------|
G-------------------------------|
D-------------------------------|
A-------------------------------|
D-5x5x--5x5x--5x5x--5x5x-5x-5x--|

heavy riff
e---------------------------------------------------------------------------|
B---------------------------------------------------------------------------|
G---------------------------------------------------------------------------|
D--0---0--0-0--0-0-0-2---2--2-2--2-2-2-5---5--5-5--5-5-5-0---0--0-0--0-0-0--|
A--0---0--0-0--0-0-0-2---2--2-2--2-2-2-5---5--5-5--5-5-5-0---0--0-0--0-0-0--|
D--0---0--0-0--0-0-0-2---2--2-2--2-2-2-5---5--5-5--5-5-5-0---0--0-0--0-0-0--|

ending riff - again, each 8x.
e----------|
B----------|
G----------|
D--2----0--|
A--2----0--|
D--2----0--|

ORDER
first riff x 2
second riff x 2
'fall...' x 1
chorus riff x 2
first riff x 2
second riff x 2
interlude bit
chorus riff x 2
heavy riff x 2
chorus riff x 1
ending riff - play it out.
Suggest correction new What's this?
You can suggest a correction to this tab. Community and Mods will review your correction and vote to approve or reject it.
comments
We did not receive enough feedback on this tab! Please rate:
print report bad tab
1 2 3 4 5
1 comment total.
0 reply
mcr_01_fan 1,127 wrote on May 25 2005, 12:00 am

meh

guest
You may want to rate the tab now too:
select rating
Please do not post tabs as comments. Select "correction" instead!