Oops, an error
Loading. Please wait.

Little Things bass

version 3
version 3

Whole song

Interactive

4,790 views 1 this week
1 commentread comment
1 2 3 4 5
x 8
add to favorites
×
Save as Personal and add changes to this tab that will be seen only by you. Learn more ›
×
You can save this tab as Personal to edit and correct it or add notes. All changes will be seen only by you. Learn more »
launch autoscroll
font size
0
reset
guitar tuner
edit
Autoscroll
slow
fast
+/-
esc
set tempo
stop
Author
Difficulty
                              Good Charlotte
                             “Little Things”
please rate.

INTRO x5
G:-------------------------|
D:-------------------------|
A:44444--------------------|
E:--------44322222---555-0-|

x5
G:-----------------------|
D:-----------------------|
A:44444------------------|
E:--------44322222---230-|

BEFORE CHORUS x1
G:-------------------------|
D:-------------------------|
A:44444--------------------|
E:--------44322222---555-0-|

x1
G:----------------------------|
D:----------------------------|
A:44444-----------------------|
E:--------4432222222255555555-|

CHORUS x4
G:---------------------------------|
D:---------------------------------|
A:44444444-------------------------|
E:--------444444442222222255555555-|

x3            4th time
G:---------|  G:---------|
D:---------|  D:---------|
A:---------|  A:---------|
E:2-225-55-|  E:2-225678-|

1ST VERSE x2
G:-------------------------|
D:-------------------------|
A:44444--------------------|
E:--------44322222---555-0-|

2ND VERSE x5
G:-----------------------|
D:-----------------------|
A:44444------------------|
E:--------44322222---230-|

x1
G:----------------------------|
D:----------------------------|
A:44444-----------------------|
E:--------4432222222255555555-|

CHORUS x4
G:---------------------------------|
D:---------------------------------|     im only spacing these out so you
A:44444444-------------------------|     can see the numbers, but they
E:--------444444442222222255555555-|     are really closer together--
                                                                     |
x3	       4th time                                              |
G:---------|  G:-------------------------------------------|         |
D:---------|  D:-------------------------------------------|         |
A:---------|  A:-------------------------------------------|         |
E:2-225-55-|  E:2-2256789-10-11-12-13-14-15-16-17-18-19-20-| <-------

CHORUS x4 
G:---------------------------------|
D:---------------------------------|
A:44444444-------------------------| <-it starts slowing down here
E:--------444444442222222255555555-|

1ST VERSE x2
G:-------------------------|
D:-------------------------|
A:44444--------------------|
E:--------44322222---555-0-|

2ND VERSE x2
G:-----------------------|
D:-----------------------|
A:44444------------------|
E:--------44322222---230-|

1ST VERSE x2
G:-------------------------|
D:-------------------------|
A:44444--------------------|
E:--------44322222---555-0-|

2ND VERSE x4
G:-----------------------|
D:-----------------------|
A:44444------------------|
E:--------44322222---230-|

END x1
G:----|
D:----|
A:-4*-|
E:----|


            
            
Suggest correction
Creating personal tab
Creating personal tab
You can edit any tab online and save it as your Personal.

You can edit, replace or remove any tab part or add personal notes – all changes will be seen only by you.

Personal tabs can be accessed anytime from any device, even offline.
Learn more »
comments
print report bad tab
1 comment total.
0 reply
tbate54 10 Jan 24, 2014 09:14 PM

All good. I'd just change the end of the verse from 555-0 to 555-4

guest
You may want to rate the tab now too:
select rating
Wanna post a correction for this tab? Suggest correction