Oops, an error
Loading. Please wait.

Makeshift Love bass

version 1
version 1

Whole song

Interactive

223 views 1 this week
no commentswrite comment
1 2 3 4 5
3 more votes to show rating
add to favorites
×
Save as Personal and add changes to this tab that will be seen only by you. Learn more ›
×
You can save this tab as Personal to edit and correct it or add notes. All changes will be seen only by you. Learn more »
launch autoscroll
font size
0
reset
guitar tuner
edit
Autoscroll
slow
fast
+/-
esc
set tempo
stop
[Intro] (For fun I come in at 0:05 playing this)
G|-11-11-11-11-12-12-14-14--11-11-11-11-16-16-14-14--------------------------|
D|---------------------------------------------------------------------------|
A|---------------------------------------------------------------------------|
D|---------------------------------------------------------------------------|

(Real Intro 0:10)
G|---------------------------------------------------------------------------|
D|---------------------------------------------------------------------------|
A|---------------------------------------------------------------------------|
D|-0-0-5~-0-0-5~-0-0-5~-2-22-5-55---0-0-5~-0-0-5~-0-0-5~-2-22-5555-----------|


[Verse]
(No bass first time through 0:21) Come in at 0:29
G|---------------------------------------------------------------------------|
D|---------------------------------------------------------------------------|
A|---------------------------------------------------------------------------|
D|--222222-5555555-00-05~-00-05~-00-05~-222222-5555555-----------------------|


[Pre-Chorus] 0:43
G|---------------------------------------------------------------------------|
D|---------------------------------------------------------------------------|
A|-222222---------------------------22222222---------------------------------|
D|---------5555555-00000000-7777777----------5555555-0~-0~-7~-5~-------------|


[Chorus]x4 0:53 
G|---------------------------------------------------------------------------|
D|---------------------------------------------------------------------------|
A|---------------------------------------------------------------------------|
D|-00000000-777777-22222222-555555-------------------------------------------|

(Intro Again 1:14)
G|---------------------------------------------------------------------------|
D|---------------------------------------------------------------------------|
A|---------------------------------------------------------------------------|
D|-0-0-5~-0-0-5~-0-0-5~-2-22-5-55--------------------------------------------|

[Verse]
(No bass first time through 1:20) Come in at 1:27
G|---------------------------------------------------------------------------|
D|---------------------------------------------------------------------------|
A|---------------------------------------------------------------------------|
D|--222222-5555555-00-05~-00-05~-00-05~-222222-5555555-----------------------|

[Pre-Chorus] 1:41
G|------------------------------14------14----14------------------------------|
D|-99999999----------------1212----1212----12-----------14--------------------|
A|----------10101010101010-----------------------121212----1212\--------------|
D|----------------------------------------------------------------------------|

G|---------------------------------------------------------------------------|
D|---------------------------------------------------------------------------|
A|-22222222------------------------------------------------------------------|
D|----------5555555-0~-0~-7~-5~----------------------------------------------|

[Chorus]x4 1:52 
G|---------------------------------------------------------------------------|
D|---------------------------------------------------------------------------|
A|---------------------------------------------------------------------------|
D|-00000000-777777-22222222-555555-------------------------------------------|

[Bridge] (For fun I come in at 2:18 playing this)
G|-11-11-11-11-12-12-14-14--11-11-11-11-16-16-14-14--------------------------|
D|---------------------------------------------------------------------------|
A|---------------------------------------------------------------------------|
D|---------------------------------------------------------------------------|

G|---------------------------------------------------------------------------|
D|--------------------------------------5-4--------------5555\---------------|
A|------------------------------------------7--------------------------------|
D|-0~-/12~-\5~\-0~-/12~-\5~\-0~-/12~-\5~------0~-/12~-\5~--------------------|

[Pre-Chorus] 2:53
G|---------------------------------------------------------------------------|
D|---------------------------------------------------------------------------|
A|---------------------------------------------------------------------------|
D|-0~-0~-7~-5~\--------------------------------------------------------------|

[Chorus] 3:00 
G|---------------------------------------------------------------------------|
D|---------------------------------------------------------------------------|
A|---------------------------------------------------------------------------|
D|-1/12\1-00000000-777777-22222222-555555------------------------------------|

[Chorus]x2 3:06
G|---------------------------------------------------------------------------|
D|---------------------------------------------------------------------------|
A|---------------------------------------------------------------------------|
D|-00000000-777777-22222222-555555-------------------------------------------|

[Outro] 3:17
G|---------------------------------------------------------------------------|
D|---------------------------------------------------------------------------|
A|---------------------------------------------------------------------------|
D|-0000-7777-2222-5555-0000-7777-2222-5--------------------------------------|

(Intro Again 3:27)
G|---------------------------------------------------------------------------|
D|---------------------------------------------------------------------------|
A|---------------------------------------------------------------------------|
D|-0-0-5~\-0-0-5~\-0-0-5~\-2-22-5-55-0-0-5~\-0-0-5~\-0-0-5~\-2-22-5-5555-----|


************************************

| /   Slide up
| \   Slide down
| ~   Let it ring

************************************

Here's my guitar and bass cover of the song if you get stuck: https://www.youtube.com/watch?v=D3QDn7n6sjs

            
            
Suggest correction
Creating personal tab
Creating personal tab
You can edit any tab online and save it as your Personal.

You can edit, replace or remove any tab part or add personal notes – all changes will be seen only by you.

Personal tabs can be accessed anytime from any device, even offline.
Learn more »
Give kudos to tab author, rate the tab!
1 2 3 4 5
comments
print report bad tab
guest
You may want to rate the tab now too:
select rating
Wanna post a correction for this tab? Suggest correction