Oops, an error
Loading. Please wait.

March On tab

version 1
version 1

Whole song

Interactive

10,136 views 1 this week
4 commentsread comments
1 2 3 4 5
x 6
add to favorites
×
Save as Personal and add changes to this tab that will be seen only by you. Learn more ›
×
You can save this tab as Personal to edit and correct it or add notes. All changes will be seen only by you. Learn more »
launch autoscroll
font size
0
reset
how to read this tab
guitar tuner
edit
Autoscroll
slow
fast
+/-
esc
set tempo
stop
Difficulty
intermediate
   verse
|--------------------------------------------------------|
|-------0----0-------------------------------------------|
|-----7----7---7----------0----0------------0-----0------|
|---5----5-------5------7----7---7--------9-----9---9----|
|---------------------5----5-------5----7-----7-------7--|
|--------------------------------------------------------|

|--------------------------------------------------------|
|--------------------------------------------------------|
|--------0----0------------0----0------------0-----0-----|
|------7----7---7--------5----5---5--------7-----7---7---|
|----5----5-------5----3----3-------3----5-----5-------5-|
|--------------------------------------------------------|
    chorus
|--------------------------------------------------------|
|--------------------------------------------------------|
|--------------------------------------------7-----7---7-|
|--------5------5---5------7-----7---7---5-5---5-5---5---|
|----3-3----3-3---3----5-5---5-5---5---------------------|
|--------------------------------------------------------|

|--------------------------------------------------------|
|--------------------------------------------------------|
|--------------------------------------------------------|
|--------7-----7---7-------5-----5---5-------7-----7---7-|
|----4-4----4-4---4----3-3---3-3---3----5-5---5-5---5----|
|--------------------------------------------------------|
   bridge
    
    Em       D        C        Em      D       Cm
        
|---0-------2--------0--------0-------2-------3-----------|
|---0-------2--------2--------0-------2-------5-----------|
|---2-------0--------0--------2-------0-------5-----------|
|---2-------0--------3--------2-------0-------3-----------|
|---0-------0--------0--------0-------0-------3-----------|

            
            
Suggest correction
Creating personal tab
Creating personal tab
You can edit any tab online and save it as your Personal.

You can edit, replace or remove any tab part or add personal notes – all changes will be seen only by you.

Personal tabs can be accessed anytime from any device, even offline.
Learn more »
comments
print report bad tab
4 comments total. Showing first comments.
0 reply
guitar_gczr 51 Oct 14, 2007 09:17 AM

pretty good.

0 reply
punk man dude 69 Mar 16, 2008 11:54 AM

the bidge is messed up it only has 5 strings

0 reply
brokenunder 364 May 18, 2008 04:31 PM

its alright but gc play it in Eb and play it all 1fret down
otherwise gd

guest
Wanna post a correction for this tab? Suggest correction