Oops, an error
Loading. Please wait.

Misery Tab

version 1
version 1

Whole song

Interactive

18,742 views 1 this week
6 commentsread comments
1 2 3 4 5
accurate
x 14
add to favorites
launch autoscroll
font size
0
reset
how to read this tab
guitar tuner
Autoscroll
slow
fast
+/-
esc
set tempo
stop
Help us to improve Ultimate-Guitar.com Take our survey!
×
Author
Artist: Good Charlotte
Song: Misery
Album: Good Morning Revival


~ = vibrato
\ = Slide Down
/ = slide Up
^ = Bend String
x = Mute String (Dead Note)


Standard Tuning (EADGBE)


INTRO

Keyboard Part On Guitar (With Delay Effect)
E--------------------|
B---19--19--19--19---|
G--------------------|  x5
D-18--18--18--18--18-|
A--------------------|
E--------------------|

Keyboard Part is played twice, then both Guitars come in.

Guitar 1
E-----------------|-----------------|
B-----------------|-----------------|
G-----------------|-----------------|
D-6-6-6-6-6-6-6-6-|-2-2-2-2-2-2-2-2-|
A-6-6-6-6-6-6-6-6-|-2-2-2-2-2-2-2-2-|
E-4-4-4-4-4-4-4-4-|-0-0-0-0-0-0-0-0-|
                                         x2
E-----------------|-----------------|
B-----------------|-----------------|  
G-4-4-4-4-4-4-4-4-|-----------------|
D-4-4-4-4-4-4-4-4-|-4-4-4-4-4-4-4-4-|
A-2-2-2-2-2-2-2-2-|-4-4-4-4-4-4-4-4-|
E-----------------|-2-2-2-2-2-2-2-2-|

Guitar 2
E-------|-------|------|--------|-------|-------|------|------|
B-------|-------|------|--------|-------|-------|------|------|
G-13----|-13----|-11---|-11---8-|-13----|-13----|-11---|-11---|
D-x-----|-x-----|-x----|-x----x-|-x-----|-x-----|-x----|-x----|
A-11----|-11----|-9----|-9----6-|-11----|-11----|-9----|-9----|
E-------|-------|------|--------|-------|-------|------|------|


VERSE

Guitar 1
E-------------------|       
B-------------------|  x4   
G-------------------|         
D------4-8----------|      
A-6----2-6-2----4-4-|      
E-4--------0----2-2-|       

Guitar 2
E-------------------|
B-------------------|  x4
G-13----13-13-------|        
D-x-----x--x--------|
A-11----11-11-------|
E-------------------|


PRE CHORUS

Guitar 1
E------------|-----------------|
B------------|-----------------|   x3
G------------|-----------------|       
D-9-9----9-9-|-/11-11----11-11-|
A-7-7----7-7-|-/9--9-----9--9--|
E------------|-----------------|

E----------------------------------|
B----------------------------------|    
G----------------------------------|        
D-9-9----9-9-11-11-11-11-11-11-11--|
A-7-7----7-7-9--9--9--9--9--9--9---|
E----------------------------------|

Keyboard Part on Guitar
E-------------|
B---19/21-----|   x2
G-------------|   
D-18----------|
A-------------|
E-------------|


CHORUS

Guitar 1
E-----------------|-----------------|
B-----------------|-----------------|
G-----------------|-----------------|
D-6-6-6-6-6-6-6-6-|-2-2-2-2-2-2-2-2-|
A-6-6-6-6-6-6-6-6-|-2-2-2-2-2-2-2-2-|
E-4-4-4-4-4-4-4-4-|-0-0-0-0-0-0-0-0-|
                                        x2
E-----------------|-----------------|
B-----------------|-----------------|  
G-4-4-4-4-4-4-4-4-|-----------------|
D-4-4-4-4-4-4-4-4-|-4-4-4-4-4-4-4-4-|
A-2-2-2-2-2-2-2-2-|-4-4-4-4-4-4-4-4-|
E-----------------|-2-2-2-2-2-2-2-2-|

Guitar 2
E-------|-------|------|------|-------|-------|------|------|
B-------|-------|------|------|-------|-------|------|------|
G-13----|-13----|-11---|-11---|-13----|-13----|-11---|-11---|
D-x-----|-x-----|-x----|-x----|-x-----|-x-----|-x----|-x----|
A-11----|-11----|-9----|-9----|-11----|-11----|-9----|-9----|
E-------|-------|------|------|-------|-------|------|------|


POST CHORUS

E-----------------|-----------------|
B-----------------|-----------------|  x2
G-----------------|-4-4-x-x-x-x-----|   
D-6-6-x-x-x-x-2-2-|-4-4-x-x-x-x-4-4-|
A-6-6-x-x-x-x-2-2-|-2-2-x-x-x-x-4-4-|
E-4-4-x-x-x-x-0-0-|-------------2-2-|


<>


BRIDGE 1

E---------|-----------------|        
B---------|-----------------|  x3    
G---------|-----------------|        
D---------|-4-4-4-4/8-8-8-8-|      
A-6\------|-2-2-2-2/6-6-6-6-|        
E-4\------|-----------------|        

E-----------------|-------------------------|        
B-----------------|-------------------------|    
G-----------------|-------------------------|        
D-9-9-9-9-9-9-9-9-|-11-11-11-11-11-11-11-11-|      
A-7-7-7-7-7-7-7-7-|-9--9--9--9--9--9--9--9--|        
E-----------------|-------------------------| 


SOLO  

Guitar 1
E-------------------------|       |-^21-^21-^21--^21--^21-^21-------|
B-21-21-21~--21~-21-21-19-|  x2   |---------------------------------|
G-------------------------|       |----------------------------^21\-|
D-------------------------|       |---------------------------------|
A-------------------------|       |---------------------------------|
E-------------------------|       |---------------------------------|

E-------------------------|       |--------------------------|
B-21-21-21~--21~-21-21-19-|  x2   |--------------------------|
G-------------------------|       |-18-20-21-20--------------|
D-------------------------|       |-------------18-19-20-18~-|
A-------------------------|       |--------------------------|
E-------------------------|       |--------------------------|


Guitar 2
E-----------------|-----------------|
B-----------------|-----------------|   
G-------------4-4-|-6-6-x-x-x-x-8-8-|
D-6-6-x-x-x-x-4-4-|-6-6-x-x-x-x-8-8-|
A-6-6-x-x-x-x-2-2-|-4-4-x-x-x-x-6-6-|
E-4-4-x-x-x-x-----|-----------------|
                                        x2
E-----------------|-----------------| 
B-----------------|-----------------|    
G-------------6-6-|-4-4-x-x-x-x-8-8-| 
D-6-6-x-x-x-x-6-6-|-4-4-x-x-x-x-8-8-|
A-6-6-x-x-x-x-4-4-|-2-2-x-x-x-x-6-6-|
E-4-4-x-x-x-x-----|-----------------|


BRIDGE 2

E-----------------|-----------------|-----------------|        
B-----------------|-----------------|-----------------|    
G-----------------|-----------------|-----------------|        
D-2-2-2-2-2-2-2-2-|-2-2-2-2-2-2-2-2-|-6-6-6-6-6-6-6-6-|      
A-2-2-2-2-2-2-2-2-|-2-2-2-2-2-2-2-2-|-6-6-6-6-6-6-6-6-|        
E-0-0-0-0-0-0-0-0-|-0-0-0-0-0-0-0-0-|-4-4-4-4-4-4-4-4-| 


<>


 END ON
E-------|
B-------|   
G-6\----|   
D-6\----|
A-4\----|
E-------|
Suggest correction
What's this?
You can suggest a correction to this tab. Community and Mods will review your correction and vote to approve or reject it.
comments
print report bad tab
6 comments total. Showing first comments.
0 reply
uiop21 515 wrote on April 3 2007, 12:13 am

The verse sounds a bit wrong...

0 reply
Ghost:o 341 wrote on April 19 2007, 06:59 am

Good solo. Although i'm pretty sure he's taken to synyster a bit and might use a wammy for the bend on the G but i don't know

Very good tab

0 reply
musicidot 230 wrote on May 10 2007, 12:02 am

good tap, this verse sounds a little off, but other than that is good

guest
You may want to rate the tab now too:
select rating
Please do not post tabs as comments. Select "correction" instead!