Oops, an error
Loading. Please wait.

Misery tab

version 4
version 4

Whole song

Interactive

2,609 views 1 this week
3 commentsread comments
1 2 3 4 5
2 more votes to show rating
add to favorites
×
Save as Personal and add changes to this tab that will be seen only by you. Learn more ›
×
You can save this tab as Personal to edit and correct it or add notes. All changes will be seen only by you. Learn more »
launch autoscroll
font size
0
reset
how to read this tab
guitar tuner
edit
Autoscroll
slow
fast
+/-
esc
set tempo
stop
Author
After count in 8 seconds of Keyboard, the INTRO begins
Eb-------------|----------|------|------------|----------|----|
Bb--10---------|-8--------|-5----|-10---------|-8--------|-10-|
Gb--x----------|-x--------|-x----|-x----------|-x--------|-x--|
Db--7----------|-5--------|-2----|-7----------|-5--------|-7--|
Ab-------------|----------|------|------------|----------|----|
Eb-------------|----------|------|------------|----------|----|

or....

Eb-5-5-5-5-5-5-3-3-3-3-3-3---------/5-5-5-5-5-5-3-3-3-3-3-3-5-5---|
Bb-------------------------5-5-5-5--------------------------------|
Gb----------------------------------------------------------------|
Db----------------------------------------------------------------|
Ab----------------------------------------------------------------|
Eb----------------------------------------------------------------|

VERSE
Eb-----------------------|
Bb-----------------------|
Gb-------5--5---9--------|
Db--7----5--5---9--5-5---|   4x
Ab--7----3--3---7--5-5---|
Eb--5--------------3-3---|

PRE-CHORUS
Eb--------------------------|
Bb--------------------------|
Gb--------------------------|
Db--------------------------| 3x
Ab-3-3----3-3/5-5----5-5----|
Eb-1-1----1-1/3-3----3-3----|

Eb-------------------------------|
Bb-------------------------------|
Gb-------------------------------|
Db-------------------------------|
Ab-3-3----3-3/5-5-5-5-5-5-5-5----|
Eb-1-1----1-1/3-3-3-3-3-3-3-3----|

CHORUS
Eb---------------------------------------------------------------------|
Bb---------------------------------------------------------------------|
Gb-----------------------------------5-5-5-5-5-5-5-5-------------------|
Db-7-7-7-7-7-7-7-7--3-3-3-3-3-3-3-3--5-5-5-5-5-5-5-5--5-5-5-5-5-5-5-5--| 2x
Ab-7-7-7-7-7-7-7-7--3-3-3-3-3-3-3-3--3-3-3-3-3-3-3-3--5-5-5-5-5-5-5-5--|
Eb-5-5-5-5-5-5-5-5--1-1-1-1-1-1-1-1-------------------3-3-3-3-3-3-3-3--|

POST CHORUS
Eb--------------------------------------------------|
Bb--------------------------------------------------|
Gb------------------------5-5--x-x-x-x-x-x----------|
Db-7-7--x-x-x-x-x-x--3-3--5-5--x-x-x-x-x-x--5-5-----| 2x
Ab-7-7--x-x-x-x-x-x--3-3--3-3--x-x-x-x-x-x--5-5-----|
Eb-5-5--x-x-x-x-x-x--1-1--------------------3-3-----|


***REPEAT THE VERSE + PRE-CHORUS + CHORUS + POST CHORUS****

BRIDGE
Eb----------|-----------------------------------|
Bb----------|-----------------------------------|
Gb----------|-5-5-5-5-5-5-5-5-9-9-9-9-9-9-9-9---|
Db----------|-5-5-5-5-5-5-5-5-9-9-9-9-9-9-9-9---| 3x
Ab-7\-------|-3-3-3-3-3-3-3-3-7-7-7-7-7-7-7-7---|
Eb-5\-------|-----------------------------------|

Eb----------------------------------------------------|
Bb----------------------------------------------------|
Gb-10-10-10-10-10-10-10-10-12-12-12-12-12-12-12-12----|
Db-10-10-10-10-10-10-10-10-12-12-12-12-12-12-12-12----|
Ab-8--8--8--8--8--8--8--8--10-10-10-10-10-10-10-10----|
Eb----------------------------------------------------|

SOLO
Eb-5-5-5-5v--5v--5-5-3-5-5-5-5-5v--5v--5-5-3-5--^10-^10-10v-10v----------|
Bb-----------------------------------------------------------------------|
Gb--------------------------------------------------------------^10\-----|
Db-----------------------------------------------------------------------|
Ab-----------------------------------------------------------------------|
Eb-----------------------------------------------------------------------|

Eb-5-5-5-5v--5v--5-5-3-5-5-5-5-5v--5v--5-5-3-5-3-------------------------|
Bb------------------------------------------------3-5-6-3----------------|
Gb---------------------------------------------------------2-4-5-4~------|
Db-----------------------------------------------------------------------|
Ab-----------------------------------------------------------------------|
Eb-----------------------------------------------------------------------|


After count in 12 seconds of silent, the 2nd BRIDGE comes
Eb---------------------------------------------------|
Bb---------------------------------------------------|
Gb---------------------------------------------------|
Db-3-3-3-3-3-3-3-3-3-3-3-3-7-7-7-7-7-7-7-7-7-7-7-7---|
Ab-3-3-3-3-3-3-3-3-3-3-3-3-7-7-7-7-7-7-7-7-7-7-7-7---|
Eb-1-1-1-1-1-1-1-1-1-1-1-1-5-5-5-5-5-5-5-5-5-5-5-5---|


***REPEAT THE CHORUS FOUR TIMES + POST CHORUS***

END
Eb-------|
Bb-------|
Gb-7\----|
Db-7\----|
Ab-5\----|
Eb-------|

            
            
Suggest correction
Creating personal tab
Creating personal tab
You can edit any tab online and save it as your Personal.

You can edit, replace or remove any tab part or add personal notes – all changes will be seen only by you.

Personal tabs can be accessed anytime from any device, even offline.
Learn more »
Give kudos to tab author, rate the tab!
1 2 3 4 5
comments
print report bad tab
3 comments total.
0 reply
Terry98 190 Aug 20, 2013 11:53 AM

what does / mean?

0 reply
he26 31 Dec 09, 2013 07:49 AM

Pizdec......

guest
You may want to rate the tab now too:
select rating
Wanna post a correction for this tab? Suggest correction