Oops, an error
Loading. Please wait.

Motivation Proclamation tab

version 2
version 2

Whole song

412 views 1 this week
2 commentsread comments
1 2 3 4 5
2 more votes to show rating
add to favorites
×
Save as Personal and add changes to this tab that will be seen only by you. Learn more ›
×
You can save this tab as Personal to edit and correct it or add notes. All changes will be seen only by you. Learn more »
launch autoscroll
font size
0
reset
how to read this tab
guitar tuner
edit
Autoscroll
slow
fast
+/-
esc
set tempo
stop
Tabbed by Mike F.
Good Charlotte
Motivation Proclamation

  G C7  Bm  D
E-3------2--2--
B-3--3---3--3--
G-0--0---4--2--
D-0--2---4-----
A-2--3---------
E-3------------


G             C7            Bm  D                 G
 Spend your lazy, endless crazy days inside my head

            C7                      Bm  D                      G
 You're so selfish, you're not the only one who thinks he's dead

             C7                  Bm     D                G
I'm paid to smile, now I'm on trial for what you think I said


               G        C7                  D
Cause I never said that everything would be ok

             G        C7                           D 
And I never said that we would live to see another day


Yeah Yeah Yeah....Rock

Chorus

e------------------------------|  
b------------------------------|
g---5-7-5-4-----------7--------|
d-5-5-7-5-4-5—X2-5-10-7-10-X2--|
a-5-3-5-3-2-5----5-10-5-10-----|
e-3---------3----3-8----8------|  



G          C7          Bm                D             G   
Unrealistic and narcissistic you say I’m selfish and absurd

           C7                    Bm           D                G   
You try to change me, you try to save me, you say I'm gonna learn

        C7
I'm so blind

           Bm               D              G
I'm out of time you're so unkind sometimes

         C7
I never lied

         Bm
I never lied

         D
I never lied



               G        C7                  D
Cause I never said that everything would be okay

             
             G                 C7                  D
And I never said that we would live to see another day

Repeat Chorus

Solo:                             
e---------------------------------------------------------------------
b-------12-------15---------------------------------------------------
g-----------------------------14b—14p12----------14-12-12-14-14b------
d-12-12----12-12----12-12--12-----------14-12-14----------------------
a---------------------------------------------------------------------
e---------------------------------------------------------------------

e---------------------------------------------------------------------
b---------------------------------------------------------------------
g-14-12---------------------------------------------------------------
d-------14-14-12-12-------------14-12-------12-2/12-------------------
a-------------------14-14-12-12-------14-14---------------------------
e---------------------------------------------------------------------

e---------------------------------------------------------------------
b----------12-------12-12-------12-------12b-------12h14--------------
g-12-12h14----12h14-------12h14----12h14-----12h14--------------------
d---------------------------------------------------------------------
a---------------------------------------------------------------------
e---------------------------------------------------------------------

e---------------------------------------------------------------------
b-------15-17---------------------------------------------------------
g----12-------14----------15-15—-0-0-12-12-------15-0-0-12-12---------
d-12-------------17—12h14--------0-0-12-12—12h14----0-0-12-12---------
a--------------------------------0-0-12-12----------0-0-12-12---------
e---------------------------------------------------------------------
                                 . . . . .          . . . . .
                                   mute               mute
e--------------------------------
b--------------------------------
g-------12-12--------12-12-14b---
d-12h14--------12h14-------------
a--------------------------------
e--------------------------------

     

           C7                 D
Yeah Cause everything will be okay
               
               C7                        D
You know we're gonna live to see another day


Yeah Yeah Yeah Yeah Yeah

G     C7     D  C7
 Motivate me .. yeah   X4

Outro:
e----------------------------------
b----------------------------------
g-------------------5555-4---------
d-5xxxx-5xxxx-5xxxx-5555-2-5-------
a-5xxxx-3xxxx-3xxxx-3333-2-5-ring--
e-3xxxx-3xxxx-3xxxx--------3-------

            
            
Suggest correction
Creating personal tab
Creating personal tab
You can edit any tab online and save it as your Personal.

You can edit, replace or remove any tab part or add personal notes – all changes will be seen only by you.

Personal tabs can be accessed anytime from any device, even offline.
Learn more »
Give kudos to tab author, rate the tab!
1 2 3 4 5
comments
print report bad tab
2 comments total.
0 reply
y0y0fre4k 10 Sep 14, 2002 08:00 PM

you spelled Proclamation wrong.. you put "prolimation".. thatz funny

0 reply
Bowzer182 10 May 05, 2003 08:00 PM

hey,nice tab
but, the C7 is a C/G chord

guest
Wanna post a correction for this tab? Suggest correction