Oops, an error
Loading. Please wait.

Predictable bass

version 1
version 1

Whole song

Interactive

4,478 views 3 this week
3 commentsread comments
1 2 3 4 5
x 3
add to favorites
×
Save as Personal and add changes to this tab that will be seen only by you. Learn more ›
×
You can save this tab as Personal to edit and correct it or add notes. All changes will be seen only by you. Learn more »
launch autoscroll
font size
0
reset
guitar tuner
edit
Autoscroll
slow
fast
+/-
esc
set tempo
stop
Author
Difficulty
Verse (Something isn't right...)
Gb-------------------------|-----------------------|
Db-------------------------|-----------------------|
Ab-0--2--3-----------------|-0--2--3---------------|
Eb----------0--1--3-1-(x3)-|----------00-00-11-11~-|

Chorus (I knew it all along...)
Gb-----------------------------------------------------------------|
Db-----------------------------------------------------------------|
Ab-3333-333-333-33-------------------------------------------------|
Eb-----------------1111-111-111-11-2222-222-222-22-1111-111-111-11-| x2

Fill 
Gb-------------|
Db-----------3-|
Ab-00-00-00-0--|
Eb-------------|

Verse 
Chorus 

Bridge (Everywhere I go...)
Gb-----------------------------------------------------------------|
Db-----------------------------------------------------------------|
Ab-0-0-000-------------------------0-0-000-3-3-333-----------------|
Eb---------1-1-111-2-2-222-1-1-111-----------------2-2-222-1-1-111-| x 2

Fill in Solo
Gb--------------------------------|
Db--------------------------------|
Ab-00--00---00-00---00-00-22--2---|
Eb-----------------------------1~-|

Chorus 
Slower Chorus 

Outro 
Gb-----------------|
Db-----------------|
Ab-33--33---33--30-|
Eb-----------------|

            
            
Suggest correction
Creating personal tab
Creating personal tab
You can edit any tab online and save it as your Personal.

You can edit, replace or remove any tab part or add personal notes – all changes will be seen only by you.

Personal tabs can be accessed anytime from any device, even offline.
Learn more »
Give kudos to tab author, rate the tab!
1 2 3 4 5
comments
print report bad tab
3 comments total.
+1 reply
espixcore 157 Feb 16, 2006 06:57 AM

If you don't wanna tune it for play just this song, just play it like 1=2 or 3=4. Do you understand?

+1 reply
alexw1020 51 Aug 07, 2007 02:24 PM

actually you'd play it like this in standard:

G|----------------------------------------------------------------|
D|----------------------------------------------------------------|
A|-2222-222-222-22------------------------------------------------|
E|-----------------0000-000-000-00-1111-111-111-11-0000-000-000-00|

+4 reply
FedericoVT 206 Mar 21, 2008 01:56 PM

Actually it should be played on a 5 string bass, like the bassist of Good Charlotte does

guest
You may want to rate the tab now too:
select rating
Wanna post a correction for this tab? Suggest correction