Oops, an error
Loading. Please wait.
We have an official River tab made by UG professional guitarists. Check out the tab »
×
87,311 views 27 this week
22 commentsread comments
1 2 3 4 5
x 27
add to favorites
×
Save as Personal and add changes to this tab that will be seen only by you. Learn more ›
×
You can save this tab as Personal to edit and correct it or add notes. All changes will be seen only by you. Learn more »
launch autoscroll
font size
0
reset
how to read this tab
guitar tuner
edit
Autoscroll
slow
fast
+/-
esc
set tempo
stop
Author
Artist: Good Charlotte
Song: The River Solo
Album: Good Morning Revival
Year: 2007
Tabbed by: Jason Kan (jason_902@hotmail.com)

Most the tabbed solos here on UG aren’t tabbed out so well so here's
what I think is a more accurate take. Hope it helps.

Played by Synyster Gates of Avenged Sevenfold, he comes in with a
whammy scream - this is where the whammy is used with a pinch harmonic.

|-------—------------------------------------------------------|
|--------------14~----12-11~-----------------------------------|
|-//11~--------------------------13p11-13p11-13/15—13p11—11~---|
|---------11---------------------------------------------------|
|--------------------------------------------------------------|
|--------------------------------------------------------------|
|--------------------------------------------------------------|

|--------------------------14----------------------------------|
|--------14~--14b16r14~---------11--—14p11-14b16~--------------|
|--------------------------------------------------------------|
|---11---------------------------------------------------------|
|--------------------------------------------------------------|
|--------------------------------------------------------------|

Listen to the song for the timing of the 11h12 hammer on (below).
Alternately you can slide from or bend the 11 to the 12 to make 
it as smooth as he plays it, take your pick.
|---11---------------------------------------------------------|
|-------14-11-11h12-11----------------------14p11h14p11h14-----|
|-----------------------13p11h13p11h13/15----------------------|
|--------------------------------------------------------------|
|--------------------------------------------------------------|
|--------------------------------------------------------------|

                     the 12h14 is a really fast hammer on
|---16-14h16p14h16p14-------------------------------13b14~-----|
|---------------------14-12h14--12-14b16~---14p11--------------|
|------------------------------------------------13------------|
|--------------------------------------------------------------|
|--------------------------------------------------------------|
|--------------------------------------------------------------|

|------16b18~--13h14-------------------------------------------|
|--15----------------14-11h14p11-14b16~~-----\\----------------|
|--------------------------------------------------------------|
|--------------------------------------------------------------|
|--------------------------------------------------------------|
|--------------------------------------------------------------|

Any suggestions or improvements my msn is jason_902@hotmail.com
Please rate, and check out my other tabs. Also feel free to leave
any comments, helpful ones always welcome.
Thanks!

            
            
Suggest correction
Creating personal tab
Creating personal tab
You can edit any tab online and save it as your Personal.

You can edit, replace or remove any tab part or add personal notes – all changes will be seen only by you.

Personal tabs can be accessed anytime from any device, even offline.
Learn more »
comments
print report bad tab
22 comments total. Showing first comments.
+2 reply
simsammons 10 May 24, 2007 11:23 AM

i like this..

its just a shame im struggling to learn it..


great tab.

+1 reply
AsperityX 31 Jun 05, 2007 01:09 PM

it sounds like he throws another 11 grace not in there before the 16, but it could just be me, it sounds good either way. great tab, helped a lot =)

0 reply
AsperityX 31 Jun 05, 2007 01:09 PM

note***

guest
You may want to rate the tab now too:
select rating
Wanna post a correction for this tab? Suggest correction