Oops, an error
Loading. Please wait.
18,734 views 1 this week
2 commentsread comments
1 2 3 4 5
1 last vote to show rating
add to favorites
×
Save as Personal and add changes to this tab that will be seen only by you. Learn more ›
×
You can save this tab as Personal to edit and correct it or add notes. All changes will be seen only by you. Learn more »
launch autoscroll
font size
0
reset
how to read this tab
guitar tuner
edit
Autoscroll
slow
fast
+/-
esc
set tempo
stop
Author
Tabbers playing skills
advanced +
Band-Good Charlotte
Title-River
Type-Chords

Ebm[X68876]OR Eb5[X68XXX]
B[7998XX] 0R B5[799XXX]
F#[244322] 0R F#5[X911XXX]
G#m[466444] OR G#5[466XXX]
C#/F[X811XXX]
Intro-Ebm B F# G#m-2X


Ebm
As I walk through the valley
F#    C#/F      Ebm
Of the shadow of LA
Ebm
The footsteps that were next to me
F#    C#/F      Ebm
Have gone their separate ways
Ebm
I've seen enough now
F#
To know that beautiful things
 C#/F      Ebm
Don't always stay that way
Ebm
I've done enough now
  F#
To know this beautiful place
 C#/F      Ebm
Isn't everything they say

REF-
F#                            G#m
I heard that evil comes disguised
     F#
Like the city of angels
G#m
I'm walking towards the light
Benji (Chorus)

CHORUS-
Ebm                B
Baptized in the river
F#
I've seen a vision of my life
G#m
And I wanna be delivered
Ebm                B
In the city with the sinner
F#
I've done a lot of things wrong
G#m
But I swear I'm a believer
Ebm                B
Like the prodigal son
F#
I was out on my own
G#m
Now I'm trying to find my way back home
Ebm                B
Baptized in the river
F#
I'm delivered
G#m
I'm delivered

[Avenged Sevenfold]
DO VERSE[Avenged Sevenfold]
You're from a small town
You're gonna grow up fast
Underneath these lights
Down in Hollywood
On the boulevard
The dead come back to life
To the praying Mother
And the worried Father
Let your children go
If they come back
They'll come home stronger
And if they don't
You'll know

DO REFRAIN[Joel]
They sing that evil comes disguised
Like the city of angels
I'm walking towards the light

DO CHORUS
Baptized in the river
I've seen a vision of my life
And I wanna be delivered
In the city with the sinner
I've done a lot of things wrong
But I swear I'm a believer
Like the prodigal son
I was out on my own
Now I'm trying to find my way back home
Baptized in the river
I'm delivered
I'm delivered

OUTRO DO CHORUS
Baptized in the river (on my own)
Baptized in the river (on my own)
I wanna be delivered
 (on my own, on my own)

OUTRO -(i only an acoustic guita for this coz I don't have an electric  guitar heheheh...
mukha kayong puwit!)
|-------—--/9b--6h9-6-----------------------------|
|--2~-/7b------------9-9-7-9p7-9/11-9p7-7~--------|
|--------6----------------------------------------|
|-------------------------------------------------|
|-------------------------------------------------|
|-------------------------------------------------|

|----/9b--9/11-9--14-14---------------------------|
|-----------------------14p11h14p11h14/16b--------|
|--6----------------------------------------------|
|-------------------------------------------------|
|-------------------------------------------------|
|-------------------------------------------------|

|-------------------------------------------------|
|-----12-11--------------------------14-14h16-14--|
|--11b-------13--11--13--11---13/15---------------|
|-------------------------------------------------|
|-------------------------------------------------|
|-------------------------------------------------|

|-16p14h16h14--------------------14b--------------|
|----------------14p11h14p11-16b-----14b----------|
|-------------------------------------------------|
|-------------------------------------------------|
|-------------------------------------------------|
|-------------------------------------------------|

|------13h14-13-----------------------------|
|---------------14----14p11-14/16b-/--------|
|------------------11-----------------------|
|-------------------------------------------|
|-------------------------------------------|
|-------------------------------------------|


Baptized in the river (on my own)
I wanna be delivered
Baptized in the river (on my own)
I wanna be delivered
Baptized in the river (on my own)
I wanna be delivered
I confess I'm a sinner
I've seen a vision of my life
And I wanna be delivered

            
            
Suggest correction
Creating personal tab
Creating personal tab
You can edit any tab online and save it as your Personal.

You can edit, replace or remove any tab part or add personal notes – all changes will be seen only by you.

Personal tabs can be accessed anytime from any device, even offline.
Learn more »
Give kudos to tab author, rate the tab!
1 2 3 4 5
comments
print report bad tab
2 comments total.
0 reply
doobidoo 6,271 Apr 23, 2007 03:33 AM

this type of tab should be on chords list not on the guitar tab type....sorry i forgot to click it..

0 reply
doobidoo 6,271 Apr 23, 2007 03:36 AM

this should be river chords not river tab...

guest
You may want to rate the tab now too:
select rating
Wanna post a correction for this tab? Suggest correction