Oops, an error
Loading. Please wait.

Say Anything tab

version 2
version 2

Whole song

Interactive

7,189 views 3 this week
2 commentsread comments
1 2 3 4 5
x 3
add to favorites
×
Save as Personal and add changes to this tab that will be seen only by you. Learn more ›
×
You can save this tab as Personal to edit and correct it or add notes. All changes will be seen only by you. Learn more »
launch autoscroll
font size
0
reset
how to read this tab
guitar tuner
edit
Autoscroll
slow
fast
+/-
esc
set tempo
stop
Author
Difficulty
----------------------------------------------------------------------------
                      good charlotte-say anything
----------------------------------------------------------------------------

tabbed by:nathan mistickokat
tuning:half step

note.this song is actually played with seven string guitars,but i tabbed it with a 6 string,
and dont woryy just the intro riff is played with the senenth string.


guitar riff with seven string
|--------------------------------------0--|
|-----------------------------------------|
|-----------------------------------0-----|
|----2----------3--------2--------3-------|
|--3----------3--------3--------3---------|
|-----------1-----------------1-----------|
|1-------------------1--------------------|

intro(guitar I)guitar riff with 6 string
|--------------------------------------0--|
|-----------------------------------------|
|-----------------------------------0-----|
|----2---------3---------2--------3-------|let ring through out.
|--3---------3---------3--------3---------|
|3---------1---------3--------1-----------|

verse played by intro riff

guitar II come in at 0:38 seconds
|0-000-0-0-0-0-01-111-1-1-1-1------------3-333-3-3-3-3-|
|1-111-1-1-1-1-11-111-1-1-1-1------------3-333-3-3-3-3-|
|0-000-0-0-0-0-02-222-2-2-2-2----4x then-0-000-0-0-0-0-|
|2-222-2-2-2-2-23-333-3-3-3-3------------0-000-0-0-0-0-|
|3-333-3-3-3-3-33-333-3-3-3-3------------2-222-2-2-2-2-|
|---------------1-111-1-1-1-1------------3-333-3-3-3-3-|


pre-chorus(guitar I)
|0----0----------------------------3-----------3---|
|1-------1------------0----------------------------|
|2----------0------0-----0-------------------------|
|2----------x---0---------------3-----------3------|
|0----------2-----------------3-----------3--------|
|-----------3---------------1-----------1----------|


guitar II
|0----------3---------------1-11-1-1-11-1-11-1-1---|
|1----------3---------------1-11-1-1-11-1-11-1-1---|
|2----------0---------------2-22-2-2-22-2-22-2-2---|
|2----------0---------------3-33-3-3-33-3-33-3-3---|
|0----------x---------------3-33-3-3-33-3-33-3-3---|
|-----------3---------------1-11-1-1-11-1-11-1-1---|


chorus(both guitars)struming these chords
|-0-|-3-|-1-|
|-1-|-3-|-1-|
|-0-|-0-|-2-|
|-2-|-0-|-3-|
|-3-|-2-|-3-|
|---|-3-|-1-|

interlude
|-----------------------------------|
|-1---0-----------------------------|
|---------2---0-------------0-------|
|-----------------3---2-------------|
|---3---3---3---3---3---3/5----5/3--|
|-----------------------------------|


verse repeat

pre-chorus repeat


chorus repeat

other interlude
|-----------------------------------------|
|-----------------------------------------|
|----------------------------------0------|
|-1010-9-9--7-7--5-5--3-3--2--------------|
|-x-x--x-x--x-x--x-x--x-x--x---3/5----5/3-|
|-8-8--7-7--5-5--3-3--1-1--0--------------|

bridge
|0----------------3----------------1----------------1-----------------|
|1----------------3----------------1----------------1-----------------|
|2----------------0----------------2----------------2-----------------|
|2----------------0----------------3----------------3-----------------|
|0----------------2----------------3----------------3-----------------|
|-----------------3----------------1----------------1-----------------|

|----0-------0--------0-------0--------0-------0--------0--------0----|
|--1-------1---1----1-------1---1----1-------1---1----1--------1---1--|
|2----------------0---------------------------------------------------|
|----------------------------------3----------------3-----------------|
|---------------------------------------------------------------------|
|---------------------------------------------------------------------|


|0----------------3----------------1----------------1-----------------|
|1----------------3----------------1----------------1-----------------|
|2----------------0----------------2----------------2-----------------|
|2----------------0----------------3----------------3-----------------|
|0----------------2----------------3----------------3-----------------|
|-----------------3----------------1----------------1-----------------|

|----0-------0--------0-------0--------0-------0--------0--------0----|
|--1-------1---1----1-------1---1----1-------1---1----1--------1---1--|
|2----------------0---------------------------------------------------|
|----------------------------------3----------------3-----------------|
|---------------------------------------------------------------------|
|---------------------------------------------------------------------|


(build up)down,down,down!!!!!!!!!!!!!!!!!!!!!!!!!!
|0-0-0-0-0-0-0-0-0-0-0-0-0-0-0-0-3-3-3-3-3-3-3-3-|
|1-1-1-1-1-1-1-1-1-1-1-1-1-1-1-1-1-1-1-1-1-1-1-1-|
|x-x-x-x-x-x-x-x-x-x-x-x-x-x-x-x-x-x-x-x-x-x-x-x-|
|3-3-3-3-3-3-3-3-3-3-3-3-3-3-3-3-3-3-3-3-3-3-3-3-|
|------------------------------------------------|
|------------------------------------------------|

chorus repeat 2x

outro
|------------------------------------------0~----|
|------------------------------------------1~----|
|----------------------------------0-------0~----|
|-1010-9-9--7-7--5-5--3-3--2---------------2~----|
|-x-x--x-x--x-x--x-x--x-x--x---3/5----5/3--3~----|
|-8-8--7-7--5-5--3-3--1-1--0---------------------|

there this is a very good tab and song,mann i remember i went to one of there concerts
well learn this and have fun.

            
            
Suggest correction
Creating personal tab
Creating personal tab
You can edit any tab online and save it as your Personal.

You can edit, replace or remove any tab part or add personal notes – all changes will be seen only by you.

Personal tabs can be accessed anytime from any device, even offline.
Learn more »
Give kudos to tab author, rate the tab!
1 2 3 4 5
comments
print report bad tab
2 comments total.
0 reply
suffering 10 Feb 26, 2007 11:29 AM

nice tab dude

0 reply
Mainer 959 May 01, 2011 03:29 PM

fantastic song, one of my favorite GC tunes

guest
You may want to rate the tab now too:
select rating
Wanna post a correction for this tab? Suggest correction