Oops, an error
Loading. Please wait.

Seasons Tab

version 1
version 1

Whole song

7,311 views 3 this week
5 commentsread comments
1 2 3 4 5
accurate
x 6
add to favorites
launch autoscroll
font size
0
reset
how to read this tab
guitar tuner
Tab Pro tools
  • play this tab
  • loop segment
  • change instrument
  • show fretboard
  • metronome
Autoscroll
slow
fast
+/-
esc
set tempo
stop
#----------------------------------PLEASE NOTE--------------------------------#
#This file is the author's own work and represents their interpretation of the#
#song. You may only use this file for private study, scholarship, or research.#
#-----------------------------------------------------------------------------#
#-- File created with Instab - http://www.pconline.com/~smcarey/instab.html --#
#-----------------------------------------------------------------------------#

Author/Artist: Good Charlotte
Title: Seasons
Album: Good Charlotte
Transcribed by: Ed Arsenault
Email: ed2118@hotmail.com

Comments: This song is fairly easy, yet fun to play. Good Charlotte is mad yummy.
Yup,Anyways, I didn't write how to strum, so listen to it, and you'll get it in
no time.Heck i tabbed it, you know its ez then :) anyways, later.

Tuning: Standard (E A D G B E)

Legend:

x - muted notes
p - pull-off
h - hammer-on
/ - slide up
\ - slide down
~ - let the note ring


INTRO TO SONG (Acoustic Guitar - Play 5 Times)
-|-0-----------------1-------0----------------------------------------------|-
-|-1--------0--------1-------1----------1-----------------------------------|-
-|-0--------0--------2-------0----------------------------------------------|-
-|-2--------0--------3-------2-------2------0-------------------------------|-
-|-3--------2--------3-------3-----3----------------------------------------|-
-|----------3--------1------------------------------------------------------|-
 Summer air reminds me of, all the feelings of your love....    




Verse (Electric Guitar - Play 2 Times)
-|----------------------------------------------------------------------------
-|----------------------------------------------------------------------------
-|-5--5xxxxxxxxxxxxxxxxxxxx---------------------------------------------------
-|-5--5xxxxxxxxxxxxxxxxxxxx----5--5xxxxxxxxxxxxxxxxxx----3--3xxxxxxxxxxxxxxx--
-|-3--3xxxxxxxxxxxxxxxxxxxx----5--5xxxxxxxxxxxxxxxxxx----3--3xxxxxxxxxxxxxxx--
-|-----------------------------3--3xxxxxxxxxxxxxxxxxx----1--1xxxxxxxxxxxxxxx-- 

-|--------------------------------------------------------------------------|-
-|--------------------------------------------------------------------------|-
-|-5---5/7p5p0--------------------------------------------------------------|-
-|-5-------------5----------------------------------------------------------|-
-|-3-------------5----------------------------------------------------------|-
-|---------------3----------------------------------------------------------|-
  Layin' In the summer grass you told me not to talk so fast....


PRE-CHORUS
-|--------------------------------------------------------------------------|-
-|--------------------------------------------------------------------------|-
-|--------------------------------------------------------------------------|-
-|-7~--------2~-------7~-------2~-------7~-----2~------5~---5---------------|-
-|-7~--------2~-------7~-------2~-------7~-----2~------5~---5---------------|-
-|-5~--------0~-------5~-------0~-------5~-----0~------3~---3---------------|-
  I know we talked about it, I just cant get around it....



Chorus (Play 2 Times)
-|--------------------------------------------------------------------------|-
-|--------------------------------------------------------------------------|-
-|--5--------------------5--5/7p5p0-----------------------------------------|-
-|--5------5------3------5-----------5--------------------------------------|-
-|--3------5------3------3-----------5--------------------------------------|-
-|---------3------1------------------3--------------------------------------|-
  I, I, I wanna fall in love tonight....


VERSE 2
-|--------------------------------------------------------------------------|-
-|--------------------------------------------------------------------------|-
-|-5~-----------------------------------------------------------------------|-
-|-5~---------------5~-------------7~-----------3~----------5~--------------|-
-|-3~---------------5~-------------7~-----------3~----------5~--------------|-
-|------------------3~-------------5~-----------1~----------3~--------------|-
  October air reminds me of all the seasons of your love...




VERSE 2 (continued)
-|----------------------------------------------------------------------------
-|----------------------------------------------------------------------------
-|-5xxxxxxxxxxxxxx------------------------------------------------------------
-|-5xxxxxxxxxxxxxx-----5xxxxxxxxxxxxx-----2xxxxxxxxxxx----3xxxxxxxxxx---------
-|-3xxxxxxxxxxxxxx-----5xxxxxxxxxxxxx-----2xxxxxxxxxxx----3xxxxxxxxxx---------
-|---------------------3xxxxxxxxxxxxx-----0xxxxxxxxxxx----1xxxxxxxxxx---------


-|--------------------------------------------------------------------------|-
-|--------------------------------------------------------------------------|-
-|--------------------------------------------------------------------------|-
-|-5xxxxx-------------------------------------------------------------------|-
-|-5xxxxx-------------------------------------------------------------------|-
-|-3xxxxx-------------------------------------------------------------------|-


Finisher aka Chorus (play 5 times)
-|----------------------------------------------------------|---------------|-
-|----------------------------------------------------------|---------------|-
-|--5--------------------5--5/7p5p0-------------------------|------5~-------|-
-|--5------5------3------5-----------5----------------------|------5~-------|-
-|--3------5------3------3-----------5----------------------|------3~-------|-
-|---------3------1------------------3----------------------|---------------|-
  I, I, I wanna fall in love tonight....                    last chord played


                ~Fin~
comments
print report bad tab
5 comments total. Showing first comments.
0 reply
rnrigfts wrote on January 18 2006, 08:31 pm

its ok but a few problems instead of the
e-1-- instead of B its easyer to put
b-1--
g-2--
d-3--
a-3--
e-1--

e-0--
b-1--
g-2--
d-3--
a-0--
e-x--
thats the main one i personally think it sounds better but you decide

0 reply
rnrigfts wrote on January 18 2006, 08:34 pm

sry its actually Fmaj7 thought it was b

0 reply
rnrigfts wrote on January 18 2006, 08:34 pm

yeah

I want to post or [tab]
guest
You may want to rate the tab now too:
select rating
Please do not post tabs as comments. Select "correction" instead!